Song name
# A B C D E F G H I J K L M N O P Q R S T U V W X Y Z

Jungle Rot - Dead And Buried tab

Band:  (Jungle Rot)
Album: (Dead and Buried)
Song:  (Dead and Buried)

.  - palm mute           /  - slide up to
\  - slide down to       ~  - vibrato
h  - hammer on           b  - Bend
p  - pull off            Suffixes for bend
t  - tap                 f  - full bend    h - half bend
ph - pinched harmonic    q  - quarter bend t - tap bend
*  - see comment         ^  - Hold bend    r release bend
x  - Stuccatto           ~  - vibrato bend
,  - slight palm mute    () - ghost note, sustained note
"  - tremolo note        <> - Trill

Tunning B E A D F# B

Riff 1
|-------------------------------------------------------------------|
|-------------------------------------------------------------------|
|-------------------------------------------------------------------|
|-------------------------------------------------------------------|
|---0"-1"------0"-1"------------------------------------------------|
|-0"--------0"------3"----------------------------------------------|

Riff 2
|-------------------------------------------------------------------|
|-------------------------------------------------------------------|
|-------------------------------------------------------------------|
|-----2-3------2-3--------------------------------------------------|
|-----0-1------0-1-5------------------------------------------------|
|-0-0------0-0-----3------------------------------------------------|

Riff 3
|-------------------------------------------------------------------|
|-------------------------------------------------------------------|
|-------------------------------------------------------------------|
|-4-3-------------------4-3-----------------------------------------|
|-2-1-------------------2-1-----------------------------------------|
|------0-0-0-0-0-0-0-0-------0/1-2-3/4-5-6/7------------------------|

Riff 4
|-------------------------------------------------------------------|
|-------------------------------------------------------------------|
|-------------------------------------------------------------------|
|-------------------------------------------------------------------|
|-4-3-4-3-4-4-3-3-4-4-3-3--4-3-4-3----------------------------------|
|-2-1-2-1-2-2-1-1-2-2-1-1--2-1-2-1-0-1-2-3-3-4-5-7------------------|
 \_Palm Mute All These__/

Riff 5
|-------------------------------------------------------------------|
|-------------------------------------------------------------------|
|-------------------------------------------------------------------|
|-------------------------------------------------------------------|
|-2"-1"-----------------2"-1"---------------------------------------|
|-------0-0-0-0-0-0-0-0-------0/1-2-3/4-5-6/7-----------------------|

Riff 1 Played 4x
Riff 2 Played 4x
Riff 1 Played 4x
Riff 2 Played 2x
Riff 1 Played 4x
Riff 2 Played 6x
Riff 3 Played 4x
Riff 1 Played 4x
riff 2 Played 4x
Riff 1 Played 4x
Riff 2 Played 6x
Riff 3 Played 4x
Riff 4 Played 6x
Riff 2 Played 4x
Riff 4 Played 4x
Riff 3 Played 3x
Riff 5 Played 2x
END

Tap to rate this tab
# A B C D E F G H I J K L M N O P Q R S T U V W X Y Z