Song name
# A B C D E F G H I J K L M N O P Q R S T U V W X Y Z

Junichi Masuda - Eterna City tab

Help us improve GuitareTab! Take a short survey!
-------------------------------------------------------------------------------
			     Eterna City - Junichi Masuda
-------------------------------------------------------------------------------
                   (The "e" and "B" string messed up at the last part...)
Tabbed by: Tokuro1
Email:
                       (This is just the background Guitar part)
Tuning:D-A-D-G-B-E
                                                                       X3
e|---------------------------------------------------------------------------|
B|---------------------------------------------------------------------------|
G|---------------------------------------------------------------------------|
D|-------4--------------------------------4----------------------------------|
A|----0--5--0------0-------------------0--5--0------0------------------------|
D|-0------------0-----6/7/6-5--0---0-------------0-----6/7/6-5---------------|

e|---------------------------------------------------------------------------|
B|---------------------------------------------------------------------------|
G|--------0---------------0--------------2------------2----------------------|
D|--------2-----------2---2--------------4------------4----------------------|
A|----2------2------2-----------------4-----4------4-----4-------------------|
D|-2-------------2-----------------4------------4----------------------------|

e|---------------------------------------------------------------------------|
B|---------------------------------------------------------------------------|
G|-------7---------7---------------4-----------------------------2-----------|
D|-------9---------9---------------5--------------4--------------4-----------|
A|----9-----9----9--------------5------5------0---5--0--------4-----4--------|
D|-9-----------9------9--7---5-------------0---------------4-----------------|

                                               
G|--------7-------------4-------------0-------------7-----(6)----------------|
D|-----9--9--9----------5----------2--2--2-------4--7--4--(7)----------------|
A|---9---------------5-----5-----2-------------4-----------------------------|
D|-9--------------5------------2-------------4-------------------------------|



| /  slide up
| \  slide down
| h  hammer-on
| p  pull-off
| ~  vibrato
| +  harmonic
| x  Mute note
===============================================================================
Related for Eterna City tab