Song name
# A B C D E F G H I J K L M N O P Q R S T U V W X Y Z

Junichi Masuda - Lavender Town tab

i transcribed this from a piano part. i think it works fine but it's kinda wonky in some 
parts :I 2spooky4u

the creepy dododado
E|------15--19--14--|
B|--13--------------|
G|------------------|
D|------------------|
A|------------------|
E|------------------|

the melody

E|--------------------------------------------------|
B|-----------------------------0--------------------|
G|--0--0--------------0-----------------------------|
D|--2--------4--4-----2--4--2--------2--------2-----|
A|-----------5-----------------------4--3--4--------|
E|-----------------------------------------7--------|


E|--------------------------------------------------|
B|--------------------0--------0-----1-----1--------|
G|--0--0-----------------0--------------------------|
D|--2--------4--4-----------4--------2--------2-----|
A|-----------5--------5-----5-----------3--2--------|
E|--------------------------------------------------|


E|--------------------------------------------------|
B|-----------------------------0--------------------|
G|--0--0--------------0-----------------------------|
D|--2--------4--4-----2--4--2--------2--------2-----|
A|-----------5-----------------------4--3--4--------|
E|-----------------------------------------7--------|


E|--------------------------------------------------|
B|--------------------0--------0--------------------|
G|--0--0-----------------0--------------------------|
D|--2--------4--4-----------4-----------------------|
A|-----------5--------5-----5--------3----3---------|
E|--------------------------------------------------|


E|--------------------------------------------------|
B|--------------------------------------------------|
G|--------------------------------------------------|
D|--2-----0-----------2--------2--------------------|
A|--------------3--------3--2-----------------------|
E|--------------------------------------------------|
Tap to rate this tab
# A B C D E F G H I J K L M N O P Q R S T U V W X Y Z