Song name
# A B C D E F G H I J K L M N O P Q R S T U V W X Y Z

Junimond - Echt tab

TITLE  : Junimond
ARTIST : Echt (Written by Rio Reiser)
AVIABLE: "Crazy - Der Soundtrack"
TAB    : Bjoern Elsner (July 1st 2000)


INTRO
------------------------------------------1-3-|
----------1-------1--------1------1----1--1-3-|
----------0-----2-2--------0----2-2----0--2-0-|
-------2------3---------2-----3--------2--3-0-|
----3-----------------3----------------3----2-|
--------------------------------------------3-|

------------------------------3-|
----------1-------1--------1----|
----------0-----2-2--------0----|
-------2------3---------2-------|
----3-----------------3---------|
--------------------------------|


C                    F             C
Die Welt schaut rauf' zu meinem Fenster
C                    F            C
Mit m?den Augen,ganz staubig und scheu
C		 F            C
Ich bin hier oben,auf meiner Wolke
C                   F               C
Ich seh dich kommen,aber du gehst vorbei

PRECHORUS:
C			 D F
Doch es tut nicht mehr weh
C			    D C
Nee,jetzt tuts nicht mehr weh
C								G
Und alles bleibt stumm,und kein Sturm kommt auf,wenn ich dich seh

CHORUS:
	G                D              C F G5
Es ist vorbei,bye bye Junimond, es ist vorbei
G
Es ist vorbei,bye bye

C                F             C
2000 Stunden hab' ich gewartet
C                F              C
Ich hab' sie alle gez?hlt und verflucht
C                   F            C
Ich hab' getrunken,geraucht und gebetet
C                           F           C
Hab' dich f?r's auf und f?r's abw?rts gesucht

PRECHORUS
CHORUS

SOLO
-----------------------------------------10-12~---------------------10-12~10-------12~10-12~-15-|
-12~12-10 ---10 ---/15--15p14p12--10h12---------10h12-------10h12------------10h12--------------|
------------------------------------------------------10h12-------------------------------------|
------------------------------------------------------------------------------------------------|
------------------------------------------------------------------------------------------------|
------------------------------------------------------------------------------------------------|

PRECHORUS
CHORUS (2Times)
Chorus (2Times(Only Backgroundvoices))

Outro
Tap to rate this tab
# A B C D E F G H I J K L M N O P Q R S T U V W X Y Z