Song name
# A B C D E F G H I J K L M N O P Q R S T U V W X Y Z

Junior Boys - Teach Me How To Fight tab

TEACH ME HOW TO FIGHT (Junior Boys)

INTRO: Bm   F#m   G/D   D/Db

     Bm    F#m   G/D   D/Db
e|---2-----2-----2-----2-----|
B|---3-----2-----3-----2-----|
G|---4-----2-----0-----2-----|
D|---4-----4-----0-----0-----|
A|---2-----4-----2-----------|
E|---------2-----3-----------|

RIFF 1

e|---------2------2----------2-------2----|
B|-------3----------2------3-----------2--|
G|-----4--------2--------0---------2------|
D|------------4------------------0--------|
A|---2-------------------2----------------|
E|------------2--------3------------------|

VERSE

G                     D 
There's some things I forget
G                     D
And if it's wrong, I keep it in check
E7                  A7
'Cause what could I do

G            D
If we go out tonight
G                       D
With that blood on your shirt?
E7                    A7
Would it taste like a brand new shirt?
G
'Cause I don't know

CHORUS

Bm   F#m   G/D   D/Db  [With RIFF 1]

                        Bm       F#m       G/D
Can you teach me how to fight?
D/Db              Bm     F#m
Show me what it's like 
G/D          D/Db
To give that pain
               Bm      F#m
Show me how to fight, 
G/D       D/Db
throw him down

VERSE

There were times in the past
If I had the move, I couldn't make it last
Girl, it's wasted in the night

And is it really so hard?
Tell your body to forget the words
Pushing you too hard
'Cause I don't know

CHORUS

Can you teach me how to fight?
Show me what it's like to give that pain
Show me how to fight, throw him down

BRIDGE

E	A	[With RIFF 2]

RIFF 2

e|---------2------2----------2------2-----|
B|-------3----------2------3----------2---|
G|-----1--------1--------2--------2-------|
D|------------------------------2---------|
A|------------2--------0------------------|
E|---0------------------------------------|

Repeat CHORUS with RIFF 3

RIFF 3

e|---------------------------------------------------------|
B|---------------------------------------------------------|
G|--2h4-4-4-2-0---2h4-4-4-2-0------------------------------|
D|------------------------------0-0-0-0-0h2----------------|
A|--------------------------------------------0-0-0-0-0h2--|
E|---------------------------------------------------------|

FADE
Tap to rate this tab
 
# A B C D E F G H I J K L M N O P Q R S T U V W X Y Z