Guitaretab - guitar tabs
Song name
# A B C D E F G H I J K L M N O P Q R S T U V W X Y Z

Junior Kimbrough - Keep Your Hands Off Her tab

Main riff: (w/ slight variations throughout)
e---------------------------------------------------------------------------|
b---------------------------------------------------------------------------|
g---------------------------------------------------------------------------|
d--------5h7---6p5p3-------------3h5p3---3h5---3---------5h7p5---5h7--------|
a--3h5---------------5-3h5-3h5---------5---------5-3h5---------5------------|
e---------------------------------------------------------------------------|

e----------------------------------------|
b----------------------------------------|
g----------------------------------------|
d--5p3---------3h5p3---3h5---3-----------|
a------5-3h5---------5---------5-3h5-----|
e----------------------------------------|
[ Tab from: http://www.guitaretab.com/j/junior-kimbrough/188809.html ]
Related for Keep Your Hands Off Her tab