Song name
# A B C D E F G H I J K L M N O P Q R S T U V W X Y Z

Junior Kimbrough - Work Me Baby tab

Main riff: (w/ slight variations throughout)
e---------------------------------------------------------------------------|
b---------------------------------------------------------------------------|
g--3h5p3---3---3h5p3---3h5-------3h5p3---3h5p3---3h5-------3---3h5----------|
d--------5-----------5-------3h5---------------5-------3h5---5--------------|
a---------------------------------------------------------------------------|
e---------------------------------------------------------------------------|

e----------------------|
b----------------------|
g--3h5-3h5-3h5p3-------|
d----------------5-----|
a----------------------|
e----------------------|
Tap to rate this tab
# A B C D E F G H I J K L M N O P Q R S T U V W X Y Z