Song name
# A B C D E F G H I J K L M N O P Q R S T U V W X Y Z

Junior Kimbrough - Nobody But You tab

-------------------------------------------------------------------------------
			     NOBODY BUT YOU - Junior Kimbrough
-------------------------------------------------------------------------------
Tabbed by: Marco "mazzukster" Mazzucchi


Tuning: Standard tuning, tune up the sixth string from E to G.


Riff

e|-------------------------------------------------------------------------------------------------|
B|---------------------------------------------------------------------------7--3------------------|
G|------------3--5--------------------3--5--------------------3--5-----------------5--3--5--3------|
D|------3--5--------3--5--------3--5--------3--5--------3--5--------3--5-----------------------5---|
A|---5-----------------------5-----------------------5---------------------------------------------|
G|---0--0--0--0--0--0--0--0--0--0--0--0--0--0--0--0--0--0--0--0--0--0--0--0--0--0--0--0--0--0--0--0|

Verse

e|--------------------------------------------------------------------------------------------|
B|---3--------------------------------------------7--3----------------------------------------|
G|------5--3--5-----3-----------------3--5--------------5--3--5--3-----------------3--5-------|
D|---------------------5--------3--5--------3--5--------------------5--------3--5--------3--5-|
A|---------------------------5--------------------------------------------5-------------------|
G|0--0--0--0--0--0--0--0--0--0--0--0--0--0--0--0--0--0--0--0--0--0--0--0--0--0--0--0--0--0--0-|

e|----------------------------------------|
B|----------------------------------------|
G|--3/5-3-3------------------3--5---------|
D|-----------3/5-------3--5--------3--5---|
A|------------------5---------------------|
G|---0--0--0--0--0--0--0--0--0--0--0--0---|




************************************

| /   slide up
| \   slide down
| h   hammer-on
| p   pull-off
| ~   vibrato
| +   harmonic
| x   Mute note
| b   Bend
| pb  Pre-bend
| br  Bend release
| pbr Pre-bend release
| brb Bend release bend

************************************
Tap to rate this tab
# A B C D E F G H I J K L M N O P Q R S T U V W X Y Z