Song name
# A B C D E F G H I J K L M N O P Q R S T U V W X Y Z

Junior Senior - Shake Your Coconuts tab

-------------------------------------------------------------------------------
			  Shake your Coconuts - Junior Senior
-------------------------------------------------------------------------------
Tabbed by: Me

Tuning: Dropped D



Main Riff 
E||-----------------------------|---------------------------||
B||-----------------------------|---------------------------||
G||*----------------------------|--------------------------*||
D||*----------------------------|-----6-6-6--5----6--5-----*||
A||---8--8-8-8--10----8--10--8--|--6--------------------6---||
D||---8--8-8-8---8----8---8--8--|--6--6-6-6--6----6--6--6---||


Chorus
E|--------------------------|--------------------------||
B|---6----6----6---6--6--6--|--8----8----8---8--8--8---||
G|*--5----5----5---5--5--5--|--7----7----7---7--7--7--*||
D|*--6----6----6---6--6--6--|--8----8----8---8--8--8--*||
A|---6----6----6---6--6--6--|--8----8----8---8--8--8---||
D|---6----6----6---6--6--6--|--8----8----8---8--8--8---||



Bridge
E|-------------------------|------------------------||
B|-------------------------|------------------------||
G|*------------------------|-----------------------*||
D|*--8--6------------------|-----------------------*||
A|---------9--6------------|--4--6----4--6----------||
D|-----------------8----8--|------------------------||
Tap to rate this tab
 
# A B C D E F G H I J K L M N O P Q R S T U V W X Y Z