Song name
# A B C D E F G H I J K L M N O P Q R S T U V W X Y Z

Junip - In Every Direction tab

----------------------------------------------------------------------------
                                Junip
                           In every direction
----------------------------------------------------------------------------

This is what i can make out of the intro to this song.
It wound sound better if you had nylon strings but if like me you dont then it might 
sound better sticking to the E-G strings.

Not so sure about the tuning

Capo: 3rd fret


  D   U  D   U  D    D D D U U U D U    D   U D   D D D U U U
|-------------------------------------------------------------|
|-------------------------------------------------------------|
|-0---0--0---0--0----0-0-0-0-0-0-0-0----0---0-0---0-0-0-0-0-0-| Back to
|-0---0--0---0--2----2-2-2-2-2-2-4-2p0--0---0-0---0-0-0-0-0-0-| beginning.
|-0h2-0--0h2-0--0----0-0-0-0-0-0-0-0----0h2-0-2---2-2-2-2-2-2-|
|-0---0--0---0--0----0-0-0-0-0-0-0-0----0---0-0---0-0-0-0-0-0-|

Thats about it, hope i got the strumming pattern right.
Just started tabbing so please rate.
Tap to rate this tab
 
# A B C D E F G H I J K L M N O P Q R S T U V W X Y Z