Song name
# A B C D E F G H I J K L M N O P Q R S T U V W X Y Z

Junker - Mogens Og Karen tab

 
 Song: Mogens og Karen
 Artist: Juncker
 Tabbed by: ST (tmt123@ofir.dk)
 Capo on 4th
 
 Here is a very cool and nice danish song, i couldnt find it anywere on the internet so i tabbed it my self.
 It's maybe not 100% Correct but it really sounds great, and it's my first tab ever.
 Under here is the chords you gonna use, just some basic chords. But remember to have capo on the 4th.
 This song is tabbed on acoustic guitar.

  C - (X32010)
  G - (320003)
  F - (XX3211)
 Am - (X02210)
 C7 - (X32310)
-------------------------------------------
 
 - Intro
 
 C

 |----0---------0----|
 |--1---1-----1---1--|
 |-0---0-----0---0---|
 |---2---2-----2---2-|
 |3---------3--------|
 |-------------------|

-------------------------------------------

 Verse
 C        Am        G        F
 |----0--------0--------3--------1---|
 |--1---1----1---1----0---0----1--1--|
 |-0---0----2---2----0---0----2-2--2-|
 |---2---2----2---2----0---0-3-------|
 |3--------0-------------------------|
 |------------------3----------------|

-------------------------------------------

 Fill

 C        Am
 |----0--------0---|
 |--1---1----1---1-|
 |-0---0----2---2--|
 |---2---2----2---2|
 |3--------0-------|
 |-----------------|

-------------------------------------------


Chorus (Normal guitar chord play)

F         G                   C         
Vi hedder Mogens og vi hedder Karen,

                    C        
vi bor lidt længer' ned' af vejen.

F          G           C      
Dig har vi aldrig fået hilst på.

       F           G            C
Du ku' nemt du ku' let kom' for tæt på. 

-------------------------------------------

This is just the chorus at the end of the
song, the difference is just the C7 in the end.

Chorus 2

F         G                   C         
Vi hedder Mogens og vi hedder Karen,

                    C        
vi bor lidt længer' ned' af vejen.

F          G           C      
Dig har vi aldrig fået hilst på.

       F           G            C7
Du ku' nemt du ku' let kom' for tæt på. 

-------------------------------------------

Fill 2

F 
Hvordan verden går i stå,

                        Am
hvordan alle bliver så små.


Når vi tier ting ihjel,

                  F 
kan vi se dem gå igen.

Am
Men når vi snakker ting ihjel,

                     F 
går de ligesom i sig selv.

-------------------------------------------


The order:

Intro X 1

Verse X 2

Fill1 X 1

Verse X 2

Chorus X 1

Verse X 2

Chorus X 1

Fill 2 X 1

Chorus 2 X 1

Chorus X 1

Sing:

Hvordan verden går i stå.

All music stop:

Hvordan alle blir' så små.
Tap to rate this tab
 
# A B C D E F G H I J K L M N O P Q R S T U V W X Y Z