Song name
# A B C D E F G H I J K L M N O P Q R S T U V W X Y Z

Junkies - Vesztettl tab

Junkies - Vesztettél

Riff 1.
E|---------------|
B|---------------|
G|-5-------------|
D|-5-16x---3-----|
A|-3-------3-16x-|
E|---------1-----|

Riff 2.
E|--------------------------------|
B|--------------------------------|
G|-----------------10--9--7-5-----|
D|-5-5-5-5-5-5-5-5-10--9--7-5-16x-|
A|-5-5-5-5-5-5-5-5-8---7--5-3-----|
E|-3-3-3-3-3-3-3-3----------------|

Riff 3.
E|-------------------------|
B|-------------------------|
G|-------------------------|
D|-2-2-2-2-2---2-2-2-2-2-3-|
A|-2-2-2-2-2---2-2-2-2-2-3-|
E|-0-0-0-0-0---0-0-0-0-0-1-|

Riff 4.
E|-----|
B|-----|
G|-----|
D|-5/8-|    
A|-5/8-|     
E|-3/6-| 

Riff 5/a
E|----------------------------------------|
B|----------------------------------------|
G|--------------9-------------------------|
D|-3-2--2-3-2---9----3-2--2-3-2--2-x-x----|
A|-3-2--2-3-2---7----3-2--2-3-2--2-x-x-3~~|
E|-1-0--0-1-0--------1-0--0-1-0--0-x-x----|

E|-------------------------------------------|
B|-------------------------------------------|
G|--------------9--------------------3-------|
D|-3-2--2-3-2---9----3-2--2-3-2--2---3-5--4-3|
A|-3-2--2-3-2---7----3-2--2-3-2--2---1-5--4-3|
E|-1-0--0-1-0--------1-0--0-1-0--0-----3--2-1|

Riff 5/b
E|------------------------------------|
B|------------------------------------|
G|--------------9---------------------|
D|-3-2--2-3-2---9----3-2--2-3-2--2----|
A|-3-2--2-3-2---7----3-2--2-3-2--2-dob|
E|-1-0--0-1-0--------1-0--0-1-0--0----|

E|----------------------------------|
B|----------------------------------|
G|--------------9-------------------|
D|-3-2--2-3-2---9----3-2--2-3-2--2--|
A|-3-2--2-3-2---7----3-2--2-3-2--2--|
E|-1-0--0-1-0--------1-0--0-1-0--0--|


Riff 1.-4x Intro

Riff 2.-1x Átvezető 1.

Riff 3.-8x Verszak az 5.re
Riff 1.-2x Verszak
Riff 3.-4x Verszak
Riff 1.-2x Verszak

Riff 4.-4x Átvezető a refrénre

Riff 1.-2x Refrén

Riff 2.-1x Átvezető 1.

Riff 3.-4x Verszak
Riff 1.-2x verszak
Riff 3.-4x Verszak
Riff 1.-2x Verszak

Riff 4.-4x Átvezető a refrénre

Riff 1.-2x Refrén

Riff 2.-1x Átvezető 1.

Riff 5/a.,5/b.-1x Szólóra vezető

Riff 1.-2x Szóló

Riff 4.-4x Átvezető a refrénre

Riff 1.-4x Refrén a szám végéig
Tap to rate this tab
 
# A B C D E F G H I J K L M N O P Q R S T U V W X Y Z