Song name
# A B C D E F G H I J K L M N O P Q R S T U V W X Y Z

Juno Reactor - Pistolero tab

-------------------------------------------------------------------------------
			     PISTOLERO - Juno Reactor
-------------------------------------------------------------------------------
This song is off the movie soundtack for "Once Upon A Time In Mexico" and Juno
Reactor's 2000 single "Pistolero".

Tabbed by: guitarfark
Email: stancsmith@gmail.com

Tuning: Standard

Intro/Theme

e|---------------------------------------------------------------------------|
B|---------------------------------------------------------------------------|
G|---------------------------------------------------------------------------|
D|-6-----2-2--------------0--2--3-2-----------------------0--2--3------------|
A|--------------------------------------2-2----------------------------------|
E|-----------------(0)-------------------------------------------------------|

e|---------------------------------------------------------------------------|
B|---------------------------------------------------------------------------|
G|---------------------------------------------------------------------------|
D|---------------------------------------------------------------------------|
A|-5-----320------0--2-2-----------------------------------------------------|
E|-------------4-------------0-0---------------------------------------------|

Solo

e|---------------------------------------------------------------------------|
B|---------------------------------------------------------------------------|
G|-----2---4p2---5p2-4p2---4p2-----0-----0-----------------------------------|
D|-2h3---3-----3---------3-----3-0---0-2---0-2-3-0-0-3-0---2-0---0-----------|
A|-------------------------------------------------------4-----4-------------|
E|---------------------------------------------------------------------------|
Tap to rate this tab
 
# A B C D E F G H I J K L M N O P Q R S T U V W X Y Z