Song name
# A B C D E F G H I J K L M N O P Q R S T U V W X Y Z

Juno Reactor - Feeling The Love tab

                                reactor

                            feeling the love

                                 intro

standard tuning : E A D G B E

BASS ARRANGEMENT FOR GUITAR

E -----------|
B -----------|
G -----------|
D -----------|
A -----------|
E -5-2-3-0-2-|

THEN GUITAR

E ------5/----|
B ------------|
G ---------5/-|
D ---------5/-|
A ------------|
E -5-2-3------|

THATS IT X
Tap to rate this tab
 
# A B C D E F G H I J K L M N O P Q R S T U V W X Y Z