Song name
# A B C D E F G H I J K L M N O P Q R S T U V W X Y Z

Junoon - Talaash tab

                         Junoon  talaash (intro)

By Sanjeev George and Thomas George
SanjeevGeorge123@yahoo.co.in


w/distortion
e|---------------------------------------------------------------------------|
B|---------------------------------------------------------------------------|
G|--------------------------------------------------------------7p0----------|
D|-----------------------------4p0-5p0-4p0------------------4p0-----5p0------|
A|--2/14\2-----3p0-0000-00-3p0--------------3p0-0000-00-3p0------------------|
E|---------------------------------------------------------------------------|


e|-------------------------------------------------------------|
B|-------------------------------------------------------------|
G|-------------------------------------------------------------|
D|------------------4p0-5p0-4p0-----------------2p0---2p0-2----|goes like that
A|--3p0-0000-00-3p0--------------3p0-0000-000-0-----0----------|
E|-------------------------------------------------------------|


Please rate
Tap to rate this tab
# A B C D E F G H I J K L M N O P Q R S T U V W X Y Z