Song name
# A B C D E F G H I J K L M N O P Q R S T U V W X Y Z

Junoon - Chalay Thay Saath tab

PTL

                    Junoon = chaley they saath saath solo

By Sanjeev George and Thomas George
SanjeevGeorge123@yahoo.co.in



e|------------------|
B|------------------|
G|------------------|
D|--5-0----3/5-5v---|
A|------6-----------|
E|------------------|


e|-------------------------------------------------------------------|
B|-------------------------------------------------------------------|
G|-----5-7-7b8r7b8r7b8r7b8r7b8r-7-5---5------------------------------|
D|-5-6------------------------------6---6-5v----5---5h6p5-5h6p5v-----|
A|------------------------------------------------8------------------|
E|-------------------------------------------------------------------|

e|-------------------------------18-16-15----18-16-15----18-16-15-------|
B|--18b20-20v----18b20-20v-20r18----------18----------18----------18----|
G|----------------------------------------------------------------------|
D|----------------------------------------------------------------------|
A|----------------------------------------------------------------------|
E|----------------------------------------------------------------------|

e|--------------------18------------------------|
B|-18b20-20v----18b20----18b20v---18p16-18-16v--|
G|----------------------------------------------|
D|----------------------------------------------|
A|----------------------------------------------|
E|----------------------------------------------|

e|-------------------------------------------------------------|
B|-----------------------------16-18-15-16---------------------|
G|-15b17-17v----17r15----15-17-------------17-15b17-15b17r15v--|
D|--------------------17---------------------------------------|
A|-------------------------------------------------------------|
E|-------------------------------------------------------------|


e|--------------------------------------16---------------------|
B|-15h16-15b16r15------16b18v----18b20-----18b20r18-18-16-16v\-|
G|-----------------17------------------------------------------|
D|-------------------------------------------------------------|
A|-------------------------------------------------------------|
E|-------------------------------------------------------------|


e|------------------------------------------------------|
B|-16-16-16\13-13\11-11\9-9\8-888h98h9p8----8----------|
G|-15-15-15\12-12\10-10\8-8\7-777---------10---10-88----|
D|------------------------------------------------------|
A|------------------------------------------------------|
E|------------------------------------------------------|

e|------------------------------------------------------------------------|
B|------------------------------------------------------------------------|
G|--5-3-5v-5v---------------------------13-15b17r15--15b17v15b17v--------|
D|----------------6-5-3b5---3v-----/15-----------------------------------|
A|------------------------------------------------------------------------|
E|------------------------------------------------------------------------|

e|-----------------------------|
B|-------16--------------------|
G|-15b17----15b17r15-15v-15----|
D|-----------------------------|
A|-----------------------------|
E|-----------------------------|

e|-----------------------------------------------|
B|-----------------------------------------------|
G|---------------------------------11-12-14------|
D|------------------------11-12-14---------------|
A|---------------10-12-14------------------------|
E|--10--10-12-14---------------------------------|

e|-----------------------------12-14-15-14v------|
B|--------------------12-14-15-------------------|
G|-----------11-12-14----------------------------|
D|--11-12-14-------------------------------------|
A|-----------------------------------------------|
E|-----------------------------------------------|

Please rate and comment
Tap to rate this tab
# A B C D E F G H I J K L M N O P Q R S T U V W X Y Z