Guitaretab - guitar tabs
Song name
# A B C D E F G H I J K L M N O P Q R S T U V W X Y Z

Junoon - Muslim Brotherhood tab

-------------------------------------------------------------------------------
			     MUSLIM BROTHERHOOD - Junoon
-------------------------------------------------------------------------------

By: ABDUL-RAB QURESHI
E-mail:  aqureshi20@hotmail.com

hey friends.  i'm just learning guitar and if i have any mistakes please forgive me. thanx.

hit the 3rd and 4th strings from bottom up.

INTRO:
[ Tab from: http://www.guitaretab.com/j/junoon/30912.html ]
e|---------------------------------------------------------------------------|
B|---------------------------------------------------------------------------|
G|---6s7--7--7--7h9--7--7--6s7--7--7--7h9--7--(7)--s11--11h12--12--12--------|
D|---0----0--0--0----0--0--0----0--0--0----0---0--------0------0---0---------|
A|---------------------------------------------------------------------------|
E|---------------------------------------------------------------------------|

don't stop 

e|---------------------------------------------------------------------------|
B|---------------------------------------------------------------------------|
G|---9h11--11--11--7h9--9--9--6s7--7----------------------------------------|
D|---0-----0---0---0----0--0--0----0-----------------------------------------|
A|---------------------------------------------------------------------------|
E|---------------------------------------------------------------------------|

PLAY LITTLE SLOW THE FIRST TIME THEN REPEAT IT FASTER AND FASTER EVERY TIME U GET TO THE END TO MAKE IT BETTER.
Related for Muslim Brotherhood tab
×
Muslim Brotherhood