Song name
# A B C D E F G H I J K L M N O P Q R S T U V W X Y Z

Junoon - Bulleya tab

Song: Bulleya
Band: Junoon
Album: Parvaaz
Tabbed by: Ahmed Nadeem
Comments to: ahm3d_nad33m@hotmail.com 
STANDARD TUNING!

[---------0------------0-----------------0-----]
[---3---3--------3--0----------0-1-0----1------]
[-----2---------------------2----------2-------]
[------------3------------------------2--------]
[-0----------------------------------0---------]
[------------------------3---------------------]

[-----3-3-------------0-------------------0----]
[--3-3-----------3-------------0-1-0-----0-----]
[---2---------------0-------2-----------1------]
[------------3-------------------------2-------]
[-0-----------------------------------2--------]
[------------------------3-----------0---------]
Tap to rate this tab
# A B C D E F G H I J K L M N O P Q R S T U V W X Y Z