Song name
# A B C D E F G H I J K L M N O P Q R S T U V W X Y Z

Junoon - Sayonee tab

After a lot of playing, I finally sounded out all the right chords and the
distortions that Salman Ahmed likes to put in! Its a fun song to play! Enjoy!

Intro
-------10-----------10-----------10---------10--------10---------10-----|
--10------10-10--------10-10--------10-10--------11------11-11----------|
------------------------------------------------------------------------|
------------------------------------------------------------------------|
------------------------------------------------------------------------|
------------------------------------------------------------------------|

-------10---------10---------13---------13------9------9----------------|
--10------10-10------10-10------10-10--------8----8-8-------------------|
------------------------------------------------------------------------|
------------------------------------------------------------------------|
------------------------------------------------------------------------|
------------------------------------------------------------------------|
                           Dm
------8--------7-----------5-----5----5-5-------------------------------|
----6--------5-------------6-----6----6-6-------------------------------|
--7--------7-----------5---7-----7----7-7-------------------------------|
---------------------7-----7-----7----7-7-------------------------------|
---------------------------5-----5----5-5-------------------------------|
---------------------------5-----5----5-5-------------------------------|

Repeat Intro

   Bb  Dm                               Repeat 3x  Dm A            Mute
--1-x-1-1---1-1---1-1---1---1---1------------//---1-0-0-0---0-0---0-----|
--3-x-3-3---3-3---3-3---3---3---3-------o---//----3-2-2-2---2-2---2-----|
--3-x-2-2---2-2---2-2---2---2---2----------//-----2-2-2-2---2-2---2-----|
--3-x-0-0---0-0---0-0---0---0---0---------//---o--0-2-2-2---2-2---2-----|
----x------------------------------------//---------0-0-0---0-0---0-----|
----x-----------------------------------//------------------------------|

Sayonee       eee               eeeee                          Sayonee
   F               C             Dm                            Repeat
--1-1-1-1---1-1-1-0---0---0-0---1---1---1-1---1---1---1---1-1-------//--|
--1-1-1-1---1-1-1-1---1---1-1---3---3---3-3---3---3---3---3-3--o---//---|
--2-2-2-2---2-2-2-0---0---0-0---2---2---2-2---2---2---2---2-2-----//----|
--3-3-3-3---3-3-3-2---2---2-2---0---0---0-0---0---0---0---0-0----//---o-|
------------------3---3---3-3-----------------------------------//------|
---------------------------------------------------------------//-------|

Verse 1:

Chorus pt.1:

Chen ik pal nahin ii       ii           Chen ik pal nahin Chen ik pal nahin
  Dm    Bb  Dm                       Repeat 2x
--1-1-1-1---1-1---1-1---1---1---1-1-------//----------------------------|
--3-3-3-3---3-3---3-3---3---3---3-3--o---//-----------------------------|
--2-2-2-3---2-2---2-2---2---2---2-2-----//------------------------------|
--0-0-0-3---0-0---0-0---0---0---0-0----//---o---------------------------|
--------------------------------------//--------------------------------|
-------------------------------------//---------------------------------|

Aur koi hal nahin...
  Dm C  A         Mute
--1-0-0-0---0-0---0-----------------------------------------------------|
--3-1-1-2---2-2---2-----------------------------------------------------|
--2-0-0-2---2-2---2-----------------------------------------------------|
--0-2-2-2---2-2---2-----------------------------------------------------|
----3-3-0---0-0---0-----------------------------------------------------|
------------------------------------------------------------------------|

Chorus pt.2:

Sayonee       eee               eeeee
   F               C             Dm
--1-1-1-1---1-1-1-0---0---0-0---1---1---0-1---3---1---0---1-1-----------|
--1-1-1-1---1-1-1-1---1---1-1---3---3---3-3---3---3---3---3-3-----------|
--2-2-2-2---2-2-2-0---0---0-0---2---2---2-2---2---2---2---2-2-----------|
--3-3-3-3---3-3-3-2---2---2-2---0---0---0-0---0---0---0---0-0-----------|
------------------3---3---3-3-------------------------------------------|
------------------------------------------------------------------------|

Sayonee       eee               eeeee
   F               C             Dm
--1-1-1-1---1-1-1-0---0---0-0---1---1---1-1---1---1---1---1-1-----------|
--1-1-1-1---1-1-1-1---1---1-1---3---3---3-3---3---3---3---3-3-----------|
--2-2-2-2---2-2-2-0---0---0-0---2---2---2-2---2---2---2---2-2-----------|
--3-3-3-3---3-3-3-2---2---2-2---0---0---0-0---0---0---0---0-0-----------|
------------------3---3---3-3-------------------------------------------|
------------------------------------------------------------------------|

Transition:

  Dm  Bb            Dm  A           Dm  Bb          C
--5---6-6-6---6-6---5---5-5---5-5---5---6-6---6-6---3-3-3-3-3-3-3-3-----|
--6---6-6-6---6-6---6---5-5---5-5---6---6-6---6-6---5-5-5-5-5-5-5-5-----|
--7---7-7-7---7-7---7---6-6---6-6---7---7-7---7-7---5-5-5-5-5-5-5-5-----|
--7---8-8-8---8-8---7---7-7---7-7---7---8-8---8-8---5-5-5-5-5-5-5-5-----|
--5---8-8-8---8-8---5---7-7---7-7---5---8-8---8-8---3-3-3-3-3-3-3-5-----|
--5---6-6-6---6-6---5---5-5---5-5---5---6-6---6-6---3-3-3-3-3-3-3-5-----|

  Dm  Bb            Dm  A           Dm              Mute
--5---6-6-6---6-6---5---5-5---5-5---5---6-6---6-6---5-------------------|
--6---6-6-6---6-6---6---5-5---5-5---6---6-6---6-6---6-------------------|
--7---7-7-7---7-7---7---6-6---6-6---7---7-7---7-7---7-------------------|
--7---8-8-8---8-8---7---7-7---7-7---7---8-8---8-8---7-------------------|
--5---8-8-8---8-8---5---7-7---7-7---5---8-8---8-8---5-------------------|
--5---6-6-6---6-6---5---5-5---5-5---5---6-6---6-6---5-------------------|

Kon mode muhaar?          aaaaaaa
               C   Dm        Repeat 4x
---------------3---5---5-5--------//------------------------------------|
---------------5---6---6-6---o---//-------------------------------------|
---------------5---7---7-7------//--------------------------------------|
---------------5---7---7-7-----//---o-----------------------------------|
---------------3---5---5-5----//----------------------------------------|
---------------3---5---5-5---//-----------------------------------------|

  Kon     mode            muhaa   aa  aa ar                          Kon
  Dm      F               C               Bb              Dm
--5---5---1---1-1---1-1---3---3-3---3-3---6---6-6---6-6---5---5-5---5-5-|
--6---6---1---1-1---1-1---5---5-5---5-5---6---6-6---6-6---6---6-6---6-6-|
--7---7---2---2-2---2-2---5---5-5---5-5---7---7-7---7-7---7---7-7---7-7-|
--7---7---3---3-3---3-3---5---5-5---5-5---8---8-8---8-8---7---7-7---7-7-|
--5---5---3---3-3---3-3---3---3-3---3-3---8---8-8---8-8---5---5-5---5-5-|
--5---5---1---1-1---1-1---3---3-3---3-3---6---6-6---6-6---5---5-5---5-5-|

mode muhaa    aar...
  C   Dm        Repeat 3x
--3---5---5-5--------//----5--------------------------------------------|
--5---6---6-6---o---//-----6--------------------------------------------|
--5---7---7-7------//------7--------------------------------------------|
--5---7---7-7-----//---o---7--------------------------------------------|
--3---5---5-5----//--------5--------------------------------------------|
--3---5---5-5---//---------5--------------------------------------------|

 Koi   saa-wan   nahin  hin hin hin
       Bb        Dm     F   C   Dm
-------6---6--5--5------1---3---5---------------------------------------|
-6-----6---------5------1---5---6---------------------------------------|
----7--7---------6------2---5---7---------------------------------------|
-------8---------7------3---5---7---------------------------------------|
-------8---------7------3---3---5---------------------------------------|
-------6---------5------1---3---5---------------------------------------|



Chorus pt.1:

Chen ik pal nahin ii       ii           Chen ik pal nahin Chen ik pal nahin
  Dm    Bb  Dm                       Repeat 2x
--1-1-1-1---1-1---1-1---1---1---1-1-------//----------------------------|
--3-3-3-3---3-3---3-3---3---3---3-3--o---//-----------------------------|
--2-2-2-3---2-2---2-2---2---2---2-2-----//------------------------------|
--0-0-0-3---0-0---0-0---0---0---0-0----//---o---------------------------|
--------------------------------------//--------------------------------|
-------------------------------------//---------------------------------|

Aur koi hal nahin...
  Dm C  A         Mute
--1-0-0-0---0-0---0-----------------------------------------------------|
--3-1-1-2---2-2---2-----------------------------------------------------|
--2-0-0-2---2-2---2-----------------------------------------------------|
--0-2-2-2---2-2---2-----------------------------------------------------|
----3-3-0---0-0---0-----------------------------------------------------|
------------------------------------------------------------------------|

Chorus pt.2:

Sayonee       eee               eeeee
   F               C             Dm
--1-1-1-1---1-1-1-0---0---0-0---1---1---0-1---3---1---0---1-1-----------|
--1-1-1-1---1-1-1-1---1---1-1---3---3---3-3---3---3---3---3-3-----------|
--2-2-2-2---2-2-2-0---0---0-0---2---2---2-2---2---2---2---2-2-----------|
--3-3-3-3---3-3-3-2---2---2-2---0---0---0-0---0---0---0---0-0-----------|
------------------3---3---3-3-------------------------------------------|
------------------------------------------------------------------------|

Sayonee       eee               eeeee
   F               C             Dm
--1-1-1-1---1-1-1-0---0---0-0---1---1---1-1---1---1---1---1-1-----------|
--1-1-1-1---1-1-1-1---1---1-1---3---3---3-3---3---3---3---3-3-----------|
--2-2-2-2---2-2-2-0---0---0-0---2---2---2-2---2---2---2---2-2-----------|
--3-3-3-3---3-3-3-2---2---2-2---0---0---0-0---0---0---0---0-0-----------|
------------------3---3---3-3-------------------------------------------|
------------------------------------------------------------------------|

Transition:

  Dm  Bb            Dm  A           Dm  Bb          C
--5---6-6-6---6-6---5---5-5---5-5---5---6-6---6-6---3-3-3-3-3-3-3-3-----|
--6---6-6-6---6-6---6---5-5---5-5---6---6-6---6-6---5-5-5-5-5-5-5-5-----|
--7---7-7-7---7-7---7---6-6---6-6---7---7-7---7-7---5-5-5-5-5-5-5-5-----|
--7---8-8-8---8-8---7---7-7---7-7---7---8-8---8-8---5-5-5-5-5-5-5-5-----|
--5---8-8-8---8-8---5---7-7---7-7---5---8-8---8-8---3-3-3-3-3-3-3-5-----|
--5---6-6-6---6-6---5---5-5---5-5---5---6-6---6-6---3-3-3-3-3-3-3-5-----|

  Dm  Bb            Dm  A           Dm              Mute
--5---6-6-6---6-6---5---5-5---5-5---5---6-6---6-6---5-------------------|
--6---6-6-6---6-6---6---5-5---5-5---6---6-6---6-6---6-------------------|
--7---7-7-7---7-7---7---6-6---6-6---7---7-7---7-7---7-------------------|
--7---8-8-8---8-8---7---7-7---7-7---7---8-8---8-8---7-------------------|
--5---8-8-8---8-8---5---7-7---7-7---5---8-8---8-8---5-------------------|
--5---6-6-6---6-6---5---5-5---5-5---5---6-6---6-6---5-------------------|

Verse 2:

Kya bashar ki bisat?              aaaaaaa
                    C   Dm        Repeat 4x
--------------------3---5---5-5--------//-------------------------------|
--------------------5---6---6-6---o---//--------------------------------|
--------------------5---7---7-7------//---------------------------------|
--------------------5---7---7-7-----//---o------------------------------|
--------------------3---5---5-5----//-----------------------------------|
--------------------3---5---5-5---//------------------------------------|

  Kya     bashar ki       bisaa   aa  aa aa aa  aaa  at           Kya
  Dm      F               C               Bb              Dm
--5---5---1---1-1---1-1---3---3-3---3-3---6---6-6---6-6---5---5-5---5-5-|
--6---6---1---1-1---1-1---5---5-5---5-5---6---6-6---6-6---6---6-6---6-6-|
--7---7---2---2-2---2-2---5---5-5---5-5---7---7-7---7-7---7---7-7---7-7-|
--7---7---3---3-3---3-3---5---5-5---5-5---8---8-8---8-8---7---7-7---7-7-|
--5---5---3---3-3---3-3---3---3-3---3-3---8---8-8---8-8---5---5-5---5-5-|
--5---5---1---1-1---1-1---3---3-3---3-3---6---6-6---6-6---5---5-5---5-5-|

 bashar ki bisa     at..
  C   Dm        Repeat 3x
--3---5---5-5--------//----5--------------------------------------------|
--5---6---6-6---o---//-----6--------------------------------------------|
--5---7---7-7------//------7--------------------------------------------|
--5---7---7-7-----//---o---7--------------------------------------------|
--3---5---5-5----//--------5--------------------------------------------|
--3---5---5-5---//---------5--------------------------------------------|

 Aaj   he  kal   nahin  hin hin hin
       Bb        Dm     F   C   Dm
-------6---6--5--5------1---3---5---------------------------------------|
-6-----6---------5------1---5---6---------------------------------------|
----7--7---------6------2---5---7---------------------------------------|
-------8---------7------3---5---7---------------------------------------|
-------8---------7------3---3---5---------------------------------------|
-------6---------5------1---3---5---------------------------------------|



Chorus pt.1:

Chen ik pal nahin ii       ii           Chen ik pal nahin. Chen ik pal nahin,
  Dm    Bb  Dm                       Repeat 2x
--1-1-1-1---1-1---1-1---1---1---1-1-------//----------------------------|
--3-3-3-3---3-3---3-3---3---3---3-3--o---//-----------------------------|
--2-2-2-3---2-2---2-2---2---2---2-2-----//------------------------------|
--0-0-0-3---0-0---0-0---0---0---0-0----//---o---------------------------|
--------------------------------------//--------------------------------|
-------------------------------------//---------------------------------|

Aur koi hal nahin...
  Dm C  A         Mute
--1-0-0-0---0-0---0-----------------------------------------------------|
--3-1-1-2---2-2---2-----------------------------------------------------|
--2-0-0-2---2-2---2-----------------------------------------------------|
--0-2-2-2---2-2---2-----------------------------------------------------|
----3-3-0---0-0---0-----------------------------------------------------|
------------------------------------------------------------------------|

Chorus pt.2:

Sayonee       eee               eeeee
   F               C             Dm
--1-1-1-1---1-1-1-0---0---0-0---1---1---0-1---3---1---0---1-1-----------|
--1-1-1-1---1-1-1-1---1---1-1---3---3---3-3---3---3---3---3-3-----------|
--2-2-2-2---2-2-2-0---0---0-0---2---2---2-2---2---2---2---2-2-----------|
--3-3-3-3---3-3-3-2---2---2-2---0---0---0-0---0---0---0---0-0-----------|
------------------3---3---3-3-------------------------------------------|
------------------------------------------------------------------------|

Sayonee       eee               eeeee
   F               C             Dm
--1-1-1-1---1-1-1-0---0---0-0---1---1---1-1---1---1---1---1-1-----------|
--1-1-1-1---1-1-1-1---1---1-1---3---3---3-3---3---3---3---3-3-----------|
--2-2-2-2---2-2-2-0---0---0-0---2---2---2-2---2---2---2---2-2-----------|
--3-3-3-3---3-3-3-2---2---2-2---0---0---0-0---0---0---0---0-0-----------|
------------------3---3---3-3-------------------------------------------|
------------------------------------------------------------------------|

Solo:

b: bend
h: hammer on
p: pull off
/: slide up
\: slide back
        /#: slide up from nut
        \#: slide back highest fret
        #/: slide up after playing note
        #\: slide back after playing note
~: vibrato

-------10-----------10-----------10---------10--------10---------10-----|
--10------10-10--------10-10--------10-10--------11------11-11----------|
------------------------------------------------------------------------|
------------------------------------------------------------------------|
------------------------------------------------------------------------|
------------------------------------------------------------------------|

-------10---------10---------13---------13------9------9----------------|
--10------10-10------10-10------10-10--------8----8-8-------------------|
------------------------------------------------------------------------|
------------------------------------------------------------------------|
------------------------------------------------------------------------|
------------------------------------------------------------------------|
                           Dm
------8--------7-----------5-----5----5-5-------------------------------|
----6--------5-------------6-----6----6-6-------------------------------|
--7--------7-----------5---7-----7----7-7-------------------------------|
---------------------7-----7-----7----7-7-------------------------------|
---------------------------5-----5----5-5-------------------------------|
---------------------------5-----5----5-5-------------------------------|

Lick 1:
--------10p8------------------------------------------------------------|
--10b11------10b11-10~--------------------------------------------------|
------------------------------------------------------------------------|
------------------------------------------------------------------------|
------------------------------------------------------------------------|
------------------------------------------------------------------------|

Lick 2:
----------8-11----------------------------------------------------------|
--8-10-11-------10b11-10~-----------------------------------------------|
------------------------------------------------------------------------|
------------------------------------------------------------------------|
------------------------------------------------------------------------|
------------------------------------------------------------------------|

Lick 3:
--13b15--11p10----------------------------------------------------------|
---------------13b15---10-11p10-----------------------------------------|
--------------------------------13~---11p10-----------------------------|
--------------------------------------------13~\------------------------|
------------------------------------------------------------------------|
------------------------------------------------------------------------|

Lick 4:
--17b19--------18b20-18~------------------------------------------------|
---------17p15----------------------------------------------------------|
------------------------------------------------------------------------|
------------------------------------------------------------------------|
------------------------------------------------------------------------|
------------------------------------------------------------------------|

Lick 5:
--20p18-----18----16----14----12----------------------------------------|
-------18-----21----19----17----15--8b10--------------------------------|
----------------20----18----16----14------------------------------------|
------------------------------------------------------------------------|
------------------------------------------------------------------------|
------------------------------------------------------------------------|

Lick 6:
------------------------------------------------------------------------|
--5-8-10-8b10~----------------------------------------------------------|
------------------------------------------------------------------------|
------------------------------------------------------------------------|
------------------------------------------------------------------------|
------------------------------------------------------------------------|

Lick 7:
------------------------------------------------------------------------|
--10-8b10-8-5--10-8b10-8-5--10-8b10-8-5--10-8b10-8-5~\------------------|
------------------------------------------------------------------------|
------------------------------------------------------------------------|
------------------------------------------------------------------------|
------------------------------------------------------------------------|

Lick 8:
------------------------------------------------------------------------|
--15---------------13---------------------------------------------------|
--14--14b16b14\12--12---------------------------------------------------|
------------------------------------------------------------------------|
------------------------------------------------------------------------|
------------------------------------------------------------------------|

Lick 9:
------------------------------------------------------------------------|
------------------------------------------------------------------------|
------------------------------------------------------------------------|
--3-0---5-3-0-3-0---5-3-0-3-0-0-0---------------------------------------|
------------------------------------------------------------------------|
------------------------------------------------------------------------|

Lick 10:
--15b17--15p12--17b19--17~----------------------------------------------|
------------------------------------------------------------------------|
------------------------------------------------------------------------|
------------------------------------------------------------------------|
------------------------------------------------------------------------|
------------------------------------------------------------------------|

Lick 11:
----15-17-19-19b21b19-17------------------------------------------------|
--17--------------------17-19b21b19-15-15~\-----------------------------|
------------------------------------------------------------------------|
------------------------------------------------------------------------|
------------------------------------------------------------------------|
------------------------------------------------------------------------|

End Licks.

--8---x-10--10-10-10-8---x-5---5-5-5-------//--/12-12-12-12-12-12-12-12-|
--6---x-8---8--8--8--6---x-7---7-7-7--o---//----10-10-10-10-10-10-10-10-|
-----------------------------------------//-----------------------------|
----------------------------------------//---o--------------------------|
---------------------------------------//-------------------------------|
--------------------------------------//--------------------------------|

--8---x-10--10-10-10-8---x-5---5-5-5-------//--/12-12-12-12-12-12-12-12\-|
--6---x-8---8--8--8--6---x-7---7-7-7--o---//----10-10-10-10-10-10-10-10\-|
-----------------------------------------//------------------------------|
----------------------------------------//---o---------------------------|
---------------------------------------//--------------------------------|
--------------------------------------//---------------------------------|

End Solo.

Verse 3:

Chod meri khata..           aaaaaaa
               C   Dm        Repeat 4x
---------------3---5---5-5--------//------------------------------------|
---------------5---6---6-6---o---//-------------------------------------|
---------------5---7---7-7------//--------------------------------------|
---------------5---7---7-7-----//---o-----------------------------------|
---------------3---5---5-5----//----------------------------------------|
---------------3---5---5-5---//-----------------------------------------|

  Chod     meri            khataa   aa  aa aa                       Chod
  Dm      F               C               Bb              Dm
--5---5---1---1-1---1-1---3---3-3---3-3---6---6-6---6-6---5---5-5---5-5-|
--6---6---1---1-1---1-1---5---5-5---5-5---6---6-6---6-6---6---6-6---6-6-|
--7---7---2---2-2---2-2---5---5-5---5-5---7---7-7---7-7---7---7-7---7-7-|
--7---7---3---3-3---3-3---5---5-5---5-5---8---8-8---8-8---7---7-7---7-7-|
--5---5---3---3-3---3-3---3---3-3---3-3---8---8-8---8-8---5---5-5---5-5-|
--5---5---1---1-1---1-1---3---3-3---3-3---6---6-6---6-6---5---5-5---5-5-|

meri khata    aaa...
  C   Dm        Repeat 3x
--3---5---5-5--------//----5--------------------------------------------|
--5---6---6-6---o---//-----6--------------------------------------------|
--5---7---7-7------//------7--------------------------------------------|
--5---7---7-7-----//---o---7--------------------------------------------|
--3---5---5-5----//--------5--------------------------------------------|
--3---5---5-5---//---------5--------------------------------------------|

 tu to paa ghal   nahin HAI HAI HAI
       Bb        Dm     F   C   Dm
-------6---6--5--5------1---3---5---------------------------------------|
-6-----6---------5------1---5---6---------------------------------------|
----7--7---------6------2---5---7---------------------------------------|
-------8---------7------3---5---7---------------------------------------|
-------8---------7------3---3---5---------------------------------------|
-------6---------5------1---3---5---------------------------------------|



Chorus pt.1:

Chen ik pal nahin ii       ii           Chen ik pal nahin Chen ik pal nahin
  Dm    Bb  Dm                       Repeat 2x
--1-1-1-1---1-1---1-1---1---1---1-1-------//----------------------------|
--3-3-3-3---3-3---3-3---3---3---3-3--o---//-----------------------------|
--2-2-2-3---2-2---2-2---2---2---2-2-----//------------------------------|
--0-0-0-3---0-0---0-0---0---0---0-0----//---o---------------------------|
--------------------------------------//--------------------------------|
-------------------------------------//---------------------------------|

Aur koi hal nahin...
  Dm C  A         Mute
--1-0-0-0---0-0---0-----------------------------------------------------|
--3-1-1-2---2-2---2-----------------------------------------------------|
--2-0-0-2---2-2---2-----------------------------------------------------|
--0-2-2-2---2-2---2-----------------------------------------------------|
----3-3-0---0-0---0-----------------------------------------------------|
------------------------------------------------------------------------|

Chorus pt.2:

Sayonee       eee               eeeee
   F               C             Dm
--1-1-1-1---1-1-1-0---0---0-0---1---1---0-1---3---1---0---1-1-----------|
--1-1-1-1---1-1-1-1---1---1-1---3---3---3-3---3---3---3---3-3-----------|
--2-2-2-2---2-2-2-0---0---0-0---2---2---2-2---2---2---2---2-2-----------|
--3-3-3-3---3-3-3-2---2---2-2---0---0---0-0---0---0---0---0-0-----------|
------------------3---3---3-3-------------------------------------------|
------------------------------------------------------------------------|

Sayonee       eee               eeeee
   F               C             Dm
--1-1-1-1---1-1-1-0---0---0-0---1---1---1-1---1---1---1---1-1-----------|
--1-1-1-1---1-1-1-1---1---1-1---3---3---3-3---3---3---3---3-3-----------|
--2-2-2-2---2-2-2-0---0---0-0---2---2---2-2---2---2---2---2-2-----------|
--3-3-3-3---3-3-3-2---2---2-2---0---0---0-0---0---0---0---0-0-----------|
------------------3---3---3-3-------------------------------------------|
------------------------------------------------------------------------|

Sayonee       eee               eeeee
   F               C             Dm
--1-1-1-1---1-1-1-0---0---0-0---1---1---0-1---3---1---0---1-1-----------|
--1-1-1-1---1-1-1-1---1---1-1---3---3---3-3---3---3---3---3-3-----------|
--2-2-2-2---2-2-2-0---0---0-0---2---2---2-2---2---2---2---2-2-----------|
--3-3-3-3---3-3-3-2---2---2-2---0---0---0-0---0---0---0---0-0-----------|
------------------3---3---3-3-------------------------------------------|
------------------------------------------------------------------------|

Sayonee       eee               eeeee
   F               C             Dm
--1-1-1-1---1-1-1-0---0---0-0---1---1---1-1---1---1---1---1-1-----------|
--1-1-1-1---1-1-1-1---1---1-1---3---3---3-3---3---3---3---3-3-----------|
--2-2-2-2---2-2-2-0---0---0-0---2---2---2-2---2---2---2---2-2-----------|
--3-3-3-3---3-3-3-2---2---2-2---0---0---0-0---0---0---0---0-0-----------|
------------------3---3---3-3-------------------------------------------|
------------------------------------------------------------------------|

Sayonee       eee               eeeee
   F               C             Dm
--1-1-1-1---1-1-1-0---0---0-0---1---1---0-1---3---1---0---1-1-----------|
--1-1-1-1---1-1-1-1---1---1-1---3---3---3-3---3---3---3---3-3-----------|
--2-2-2-2---2-2-2-0---0---0-0---2---2---2-2---2---2---2---2-2-----------|
--3-3-3-3---3-3-3-2---2---2-2---0---0---0-0---0---0---0---0-0-----------|
------------------3---3---3-3-------------------------------------------|
------------------------------------------------------------------------|

Sayonee       eee               eeeee
   F               C             Dm
--1-1-1-1---1-1-1-0---0---0-0---1---1---1-1---1---1---1---1-1-----------|
--1-1-1-1---1-1-1-1---1---1-1---3---3---3-3---3---3---3---3-3-----------|
--2-2-2-2---2-2-2-0---0---0-0---2---2---2-2---2---2---2---2-2-----------|
--3-3-3-3---3-3-3-2---2---2-2---0---0---0-0---0---0---0---0-0-----------|
------------------3---3---3-3-------------------------------------------|
------------------------------------------------------------------------|

Sayonee       eee               eeeee
   F               C             Dm
--1-1-1-1---1-1-1-0---0---0-0---1---1---0-1---3---1---0---1-1-----------|
--1-1-1-1---1-1-1-1---1---1-1---3---3---3-3---3---3---3---3-3-----------|
--2-2-2-2---2-2-2-0---0---0-0---2---2---2-2---2---2---2---2-2-----------|
--3-3-3-3---3-3-3-2---2---2-2---0---0---0-0---0---0---0---0-0-----------|
------------------3---3---3-3-------------------------------------------|
------------------------------------------------------------------------|

Sayonee       eee               eeeee
   F               C             Dm
--1-1-1-1---1-1-1-0---0---0-0---1---1---1-1---1---1---1---1-1-----------|
--1-1-1-1---1-1-1-1---1---1-1---3---3---3-3---3---3---3---3-3-----------|
--2-2-2-2---2-2-2-0---0---0-0---2---2---2-2---2---2---2---2-2-----------|
--3-3-3-3---3-3-3-2---2---2-2---0---0---0-0---0---0---0---0-0-----------|
------------------3---3---3-3-------------------------------------------|
------------------------------------------------------------------------|

[Fade away.]

That's eveything in scrutinizing detail! if i miss anything or make a mistake, let me know!
Email: haseebe_jazzz@hotmail.com
Tap to rate this tab
# A B C D E F G H I J K L M N O P Q R S T U V W X Y Z