Song name
# A B C D E F G H I J K L M N O P Q R S T U V W X Y Z

Junoon - Yaar Bina tab

Ok, this one is a bit tricky but really easy to play. Just make sure that you play it fast enough where 
necessary.

Yaar bina!

This is the main riff in the whole song, as well as the intro:

--------------------------|
--------------------------|
----------2---x--2---x--2-|
---2--2---4---x--4---x--4-|
---2--2---4---x--4---x--4-|
---0--0-------------------|
    ^^
This interval is
extremely short.


   y  a  a  r   b  i  n  a   dil mera
--------------------------|
--------------------------|
----------2---x--2---x--2-|
---2--2---4---x--4---x--4-|
---2--2---4---x--4---x--4-|
---0--0-------------------|


   N a h i n  l a g d a ....
--------------------------|
--------------------------|
----------2---x--2---x--2-|
---2--2---4---x--4---x--4-|
---2--2---4---x--4---x--4-|
---0--0-------------------|

--------------------------|
--------------------------|
----------2---x--2---x--2-|
---2--2---4---x--4---x--4-|
---2--2---4---x--4---x--4-|
---0--0-------------------|

 pyaar bina dil mera nahin  lag
---3--------1--------------------|
---3--------1--------------------|
---4--------2--------------------|
---5--------3---------2-----5--4-|
---5--------3---------2-----5--4-|
---3--------1---------0-----3--2-|


   d a ...
--------------------------|
--------------------------|
----------2---x--2---x--2-|
---2--2---4---x--4---x--4-|
---2--2---4---x--4---x--4-|
---0--0-------------------|


Usman Haroon
usmanh_81@yahoo.com
Tap to rate this tab
 
# A B C D E F G H I J K L M N O P Q R S T U V W X Y Z