Song name
# A B C D E F G H I J K L M N O P Q R S T U V W X Y Z

Junoon - Piya tab

Intro To Piya:


E-----------------------------------------------|
B-----------------------------------------------|
G-----------------------------------------------|
D-----0--------0----------0--------0--------0---|
A-2-----2--2-----2----0-----0-0------0--0-----0-|
E---2--------2----------2-------2---------1-----|


E------------------------------------------|
B------------------------------------------|
G------------------------------------------|
D-----0--------0---------------------------|
A-0-----0--2-----2-------------------------|
E---1--------2-----------------------------|

Tabbed by Meri Awaz Suno on the discussion.

Usman Haroon
usmanh_81@yahoo.com
Tap to rate this tab
# A B C D E F G H I J K L M N O P Q R S T U V W X Y Z