Song name
# A B C D E F G H I J K L M N O P Q R S T U V W X Y Z

Junoon - Kisey Gaoon Main tab

That's Kaisey Gaon Main,

the chords are D, G, C.

E-7-----5-----------5---|
B-8-----7-----8-----7---|
G---7-----7---7-7-----7-|
D-----------------------|
A-----------------------|
E-----------------------|

E-7-----5--------5----|
B-8-----7-----7--7--8-|
G---7-----7---7-----7-|
D---------------------|
A---------------------|

That was the intro... Most of the rest of the song works around this...

E-2------3-----3------3-2--0---|
B-3-3----3---3----0h1---3----3-|
G-2---2--0-0------0-----2------|
D-0------0--------2-----0------|
A--------2--------3------------|
E--------3---------------------|

it was tabbed by someone on junoon.com discussion, his real name is Amir.

Usman Haroon
usmanh_81@yahoo.com
Tap to rate this tab
# A B C D E F G H I J K L M N O P Q R S T U V W X Y Z