Song name
# A B C D E F G H I J K L M N O P Q R S T U V W X Y Z

Junoon - Ghoom Tanana tab

This is ma 1st tab so feel free to correct me if am wrong.

E-8-7----8-7----8-7--8-7----8-7----10-7-|
B-----8------8-----------8------8-------|
G---------------------------------------|
D---------------------------------------|
A---------------------------------------|
E---------------------------------------|

E-8-7----8-7----8-7--8-7----8-7----10-7-|
B-----8------8-----------8------8-------|
G---------------------------------------|
D---------------------------------------|
A---------------------------------------|
E---------------------------------------|

Then it carrys on like this untill the songs kicks in..

E-8-7----8-7---10-7--8-7----8-7----10-7-|
B-----8------8-----------8------8-------|
G---------------------------------------|
D---------------------------------------|
A---------------------------------------|
E---------------------------------------|

Its preti accurate according to me, please post ur feedback

HUZ9
Tap to rate this tab
# A B C D E F G H I J K L M N O P Q R S T U V W X Y Z