Song name
# A B C D E F G H I J K L M N O P Q R S T U V W X Y Z

Jupiter Jones - Ansage tab

Song: Ansage
Artist: Jupiter Jones
Tabbed by: Rehmer (Rehmeronsolos)

Tuning: Standard (EADGBe)

Important: The guitar plays triplets all the time - except the last part.

#############
FIRST GUITAR

0:13

e|-----------------------|
B|-----------------------|
G|-----------------------|    2x  
D|-----------------------|
A|-----------------------|
E|-2--6--8--9--6-9-4-11--|

0:37

e|------------|           e|----------|
B|------------|           B|----------|
G|------------|    3x     G|----------| 
D|------------|           D|----------|
A|------------|           A|----------|
E|-2--4--6-4--|           E|-2--6--4--|

1:01

e|-----------------------|
B|-----------------------|
G|-----------------------|    2x  
D|-----------------------|
A|-----------------------|
E|-2--6--8--9--6-9-4-11--|

1:25

e|------------|           e|----------|
B|------------|           B|----------|
G|------------|    3x     G|----------| 
D|------------|           D|----------|
A|------------|           A|----------|
E|-2--4--6-4--|           E|-2--6--4--|


1:49

e|---------------|
B|---------------|
G|-6--8--10--11--|    6x  
D|-6--8--10--11--|
A|-4--6--8---9---|
E|---------------|



#############
SECOND GUITAR

0:13 / 1:01

e|----------------|
B|----------------|
G|-10--13--6--10--|    4x  
D|----------------|
A|----------------|
E|----------------|




#############
THIRD GUITAR (optional instead the synthesizer)

0:37 / 1:25

e|---------------------------------------------------------------|
B|---------------------------------------------------------------|
G|-10--11--5--6--10--11--5--3--10--11--5--6--3--1--6--8--10--6---|  
D|---------------------------------------------------------------|
A|---------------------------------------------------------------|
E|---------------------------------------------------------------|

2:13

e|-------------------------|
B|-------------------------|
G|-------------10----------|    5x  
D|-11--13--11------11--13--|
A|-------------------------|
E|-------------------------|

e|-----------------------------|
B|-----------------------------|
G|-------------10--10--10------|    
D|-11--13--11--------------11--|
A|-----------------------------|
E|-----------------------------|
Tap to rate this tab
# A B C D E F G H I J K L M N O P Q R S T U V W X Y Z