Song name
# A B C D E F G H I J K L M N O P Q R S T U V W X Y Z

Jupiter Sunrise - Suddenly tab

Help us improve GuitareTab! Take a short survey!
Band: Jupiter Sunrise
Song: Suddenly
Tabbed By: Jana
Tuning: Standard

palm mute
e|-----------------------------------------
B|-----------------------------------------
G|-----7-----7-----7-----7-----7-----7-----
D|-4-5---4-5---4-5---4-5---4-5---4-5------- repeat many times
A|-----------------------------------------
E|-----------------------------------------

VERSE
e|-3333-5555-7777-8-8-8-8-----------------
B|-3333-5555-7777-8-8-8-8-----------------
G|-4444-5555-7777-9-9-9-9-----------------
D|-5555-7777-9999-10101010----------------
A|-5555-7777-9999-10101010----------------
E|-3333-5555-7777-8-8-8-8-----------------

CHORUS
e|-3333-8-8-8-8------3333-7-8--5-3--------
B|-3333-8-8-8-8------3333-7-8--5-3--------
G|-4444-9-9-9-9------4444-7-9--6-4--------
D|-5555-10101010-[2x]5555-9-10-7-5--------
A|-5555-10101010-----5555-9-10-7-5--------
E|-3333-8-8-8-8------3333-7-8--5-3--------

INTRO
VERSE
CHORUS

The outro uses the same chords just a few changes.
Related for Suddenly tab