Song name
# A B C D E F G H I J K L M N O P Q R S T U V W X Y Z

Jupiter Sunrise - Arthur Nix tab

Tuning: Standard (EADGBe)


/=slide




e|--------------------------------------------------------------------|
B|---9----------------------------------------------------------------|
G|--9-9-11-9-11/9-8-9-6---4---4---------------------------------------|
D|-9---------11/9-------7---6---5--2222-66-77-44-2222-66-77-----------|
A|---------------------------------2222-66-77-44-2222-66-77-----------|
E|---------------------------------0000-44-55-22-0000-44-55-----------|

e|---------------------5----------------------------------------------|
B|---------------------5----------------------------------------------|
G|-9--------6---6---6--6----------------------------------------------|
D|--9------7-7-7-7-7-7-7----------------------------------------------|
A|---11-/-9---8---7---------------------------------------------------|
E|--------------------------------------------------------------------|

You'll have to listen to the song to figure out the rythym of the power
chords. I'm not sure about that chord at the end of the intro but thats
as close as I could get. Hope you like it. Enjoy!
Tap to rate this tab
# A B C D E F G H I J K L M N O P Q R S T U V W X Y Z