Song name
# A B C D E F G H I J K L M N O P Q R S T U V W X Y Z

Jupiter Sunrise - Afraid To Fall tab

This is my first tab so sorry if its not perfect. Please leave me comments if it needs improvement.


e[---------------------------------------------------]
B[---------------------------------------------------]
G[----14^14----11^9h11---9p7----9p7----9p7--9p7------]
D[---------------------------9------9------------9-9-]
A[---------------------------------------------------]
E[---------------------------------------------------]


e[----------------------------------------------------]
B[-------------------------------------------------12-]
G[----14^14----11^9h11---9p7----9p7----9p7--9p7-------]
D[---------------------------9------9------------9----]
A[----------------------------------------------------]
E[----------------------------------------------------]

The second time is a little faster you'll figure it out when yuo listen to the song.
Tap to rate this tab
# A B C D E F G H I J K L M N O P Q R S T U V W X Y Z