Song name
# A B C D E F G H I J K L M N O P Q R S T U V W X Y Z

Jurgen Drews - Warum Immer Ich tab

Intro: Keyboard and String.. 


Verse: 1 string 8 bars


e--------------------|--------------------|--------------------|--------------------|
B--------------------|--------------------|--------------------|--------------------|
G--------------------|--------------------|--------------------|--------------------|
D-----2-3-5-3-2------|-----2-3-5-3-2------|-------0-2-0--------|-------0-2-0--------|
A-3-3-----------3----|-3-3-----------3----|-0-0-3-------3-0----|-0-0-3-------3-0----|
E--------------------|--------------------|--------------------|--------------------|

e-------------------|---------------------|--------------------|--------------------|
B-------------------|---------------------|--------------------|--------------------|
G-------------------|---------------------|--------------------|--------------------|
D-------------------|---------------------|-----2-3-5-3-2------|-5---5---5---5------|
A-----0-2-3-2-0-----|-----0-2-3-2-0-------|-3-3-----------3----|-5---5---5---5------|
E-1-1-----------1---|-1-1-----------1-----|--------------------|-3---3---3---3------|


Chorus: X2
   
   C                     C                 G                      G
e---------------------|------------------|---------------------|-----------------|
B---------------------|------------------|---------------------|-----------------|
G--5------------------|--5---------------|---------------------|-----------------|
D--5------------------|--5---------------|--5------------------|--5--------------|
A--3------------------|--3---------------|--5------------------|--5--------------|
E---------------------|------------------|--3------------------|--3--------------|
 
   D                     F                 C                      G
e---------------------|------------------|---------------------|-----------------|
B---------------------|------------------|---------------------|-----------------|
G--7------------------|------------------|--5------------------|-----------------|
D--7------------------|--3---------------|--5------------------|--5--------------|
A--5------------------|--3---------------|--3------------------|--5--------------|
E---------------------|--1---------------|---------------------|--3--------------|


Verse: 2


e--------------------|--------------------|--------------------|--------------------|
B--------------------|--------------------|--------------------|--------------------|
G--------------------|--------------------|--------------------|--------------------|
D-----2-3-5-3-2------|-----2-3-5-3-2------|-------0-2-0--------|-------0-2-0--------|
A-3-3-----------3----|-3-3-----------3----|-0-0-3-------3-0----|-0-0-3-------3-0----|
E--------------------|--------------------|--------------------|--------------------|

e-------------------|---------------------|--------------------|--------------------|
B-------------------|---------------------|--------------------|--------------------|
G-------------------|---------------------|--------------------|--------------------|
D-------------------|---------------------|-----2-3-5-3-2------|--------------------|
A-----0-2-3-2-0-----|-----0-2-3-2-0-------|-3-3-----------3----|-----2-3-5-3-2------|
E-1-1-----------1---|-1-1-----------1-----|--------------------|-3-3-----------3----|


e--------------------|--------------------|--------------------|--------------------|
B--------------------|--------------------|--------------------|--------------------|
G--------------------|--------------------|--------------------|--------------------|
D-----2-3-5-3-2------|-----2-3-5-3-2------|-------0-2-0--------|-------0-2-0--------|
A-3-3-----------3----|-3-3-----------3----|-0-0-3-------3-0----|-0-0-3-------3-0----|
E--------------------|--------------------|--------------------|--------------------|

e-------------------|---------------------|--------------------|--------------------|
B-------------------|---------------------|--------------------|--------------------|
G-------------------|---------------------|--------------------|--------------------|
D-------------------|---------------------|-----2-3-5-3-2------|-5---5---5---5------|
A-----0-2-3-2-0-----|-----0-2-3-2-0-------|-3-3-----------3----|-5---5---5---5------|
E-1-1-----------1---|-1-1-----------1-----|--------------------|-3---3---3---3------|




Chorus: X2
   
   C                     C                 G                      G
e---------------------|------------------|---------------------|-----------------|
B---------------------|------------------|---------------------|-----------------|
G--5------------------|--5---------------|---------------------|-----------------|
D--5------------------|--5---------------|--5------------------|--5--------------|
A--3------------------|--3---------------|--5------------------|--5--------------|
E---------------------|------------------|--3------------------|--3--------------|
 
   D                     F                 C                      G
e---------------------|------------------|---------------------|-----------------|
B---------------------|------------------|---------------------|-----------------|
G--7------------------|------------------|--5------------------|-----------------|
D--7------------------|--3---------------|--5------------------|--5--------------|
A--5------------------|--3---------------|--3------------------|--5--------------|
E---------------------|--1---------------|---------------------|--3--------------|


Guitar solo:

e-----------8--8-8-8----10b11----10b11-10p8h10----8--8-8-8----10b11----15----------------|
B------8-10----------10-----------------------10-----------10-------------13-15-15b16-13-|
G--7/9-----------------------------------------------------------------------------------|
D----------------------------------------------------------------------------------------|
A----------------------------------------------------------------------------------------|
E----------------------------------------------------------------------------------------|

--------------------------------------|
------13----15b17-b17-b17-b17-15p13---|
13/14----14---------------------------|
--------------------------------------|
--------------------------------------|
--------------------------------------|


Chorus And Outro: X4
      C                     C                 G                      G
e---------------------|------------------|---------------------|-----------------|
B---------------------|------------------|---------------------|-----------------|
G--5------------------|--5---------------|---------------------|-----------------|
D--5------------------|--5---------------|--5------------------|--5--------------|
A--3------------------|--3---------------|--5------------------|--5--------------|
E---------------------|------------------|--3------------------|--3--------------|
 
   D                     F                 C                      G
e---------------------|------------------|---------------------|-----------------|
B---------------------|------------------|---------------------|-----------------|
G--7------------------|------------------|--5------------------|-----------------|
D--7------------------|--3---------------|--5------------------|--5--------------|
A--5------------------|--3---------------|--3------------------|--5--------------|
E---------------------|--1---------------|---------------------|--3--------------|
Tap to rate this tab
# A B C D E F G H I J K L M N O P Q R S T U V W X Y Z