Song name
# A B C D E F G H I J K L M N O P Q R S T U V W X Y Z

Juris Fernandez - Di Lang Ikaw tab

Di lang ikaw (intro)

E |------------9--|--------------|
B |---7----7------|------6--7----|
G |------8--------|---6-------6--|
D |----8----------|--------------|
A |---------------|--------------|
E |---------------|------7-------|


E |------------9--|--------------|
B |---7----7------|--------------|
G |------8--------|---6--6h8-----|
D |----8----------|--------------|
A |---------------|--------------|
E |---------------|------7-------|

                  
E |------------------|---------------|--------------|----------|
B |--0-------6--7----|--9-7--6--7----|--7--6--7-----|----6h8---|
G |---6-8---------6--|------------6--|----------6---|--6-------|
D |------------------|---------------|--------------|----------|
A |----------6-------|---------------|--------------|----------|
E |------------------|-------8-------|-----6--------|-----7----|
Tap to rate this tab
# A B C D E F G H I J K L M N O P Q R S T U V W X Y Z