Song name
# A B C D E F G H I J K L M N O P Q R S T U V W X Y Z

Just Another Band - This Ones For You tab

-------------------------------------------------------------------------------
			     THIS ONE'S FOR YOU - Just Another Band
-------------------------------------------------------------------------------
Tabbed by: NoSnowBear
Email: avespestad@ymail.com

Tuning: Standard 

Rhythm Guitar

*Capo on 1st fret* - tab relative to capo

Intro

e|---------------------|
B|---------------------|
G|-9~--4~--2~--4~------|
D|-9~--4~--2~--4~------|
A|-7~--2~--0~--2~------|
E|---------------------|

MAIN RIFF

e|-----------------------------------------------------------|
B|-----------------------------------------------------------|
G|--999/4-44-222-6-66------44-666/-2-22----------------------|
D|--999/4-44-222-6-66--222-44-666/-2-22----------------------|
A|--777/2-22-000-4-44--222-22-444/-0-00----------------------|
E|---------------------000-----------------------------------|

MAIN RIFF W/VERSE PRELUDE

e|-------------------------------------------|
B|-------------------------------------------|
G|--999/4-44-222-6-66/4-22222222-44444444----|
D|--999/4-44-222-6-66/4-22222222-44444444----|
A|--777/2-22-000-4-44/2-00000000-22222222----|
E|----------------------xxxxxxxx-xxxxxxxx----|
                               (muted)

Verse 1

e|------------------------------------------------------|
B|------------------------------------------------------|
G|---------2~----222-4-44444/6-66666-2-222-222-222-222--|
D|-2~------2~----222-4-44444/6-66666-2-222-222-222-222--|
A|-2~------0~----000-2-22222/4-44444-0-000-000-000-000--|
E|-0~---------------------------------------------------|
                                                                                                  
e|-----------------------------------------------------------------------|
B|-----------------------------------------------------------------------|
G|-------------------2222222222222222-44444444-66666666-2222222222222222-|
D|-2222222222222222--2222222222222222-44444444-66666666-2222222222222222-|
A|-2222222222222222--0000000000000000-22222222-44444444-0000000000000000-|
E|-0000000000000000--xx--xx-xxx--xx-x-xx--xx-x-xx--xx-x-xx--xx-xxx--xx---|
   xx  xx xxx  xx x

Pre-Chorus

e|----------------------------------------------------|
B|----------------------------------------------------|
G|-4~------666-2~-------666-4~------666-2-2-2-44444---|
D|-4~------666-2~-------666-4~------666-2-2-2-44444---|
A|-2~------444-0~-------444-2~------444-0-0-0-22222---|
E|----------------------------------------------------|
                                              xxxxx
Chorus
 
e|-------------------------------|
B|-------------------------------|
G|-9------4------2------4-----4--|
D|-9------4------2------4-----4--|
A|-7(x16)-2(x16)-0(x16)-2(x8)-2--|
E|-------------------------------|
 
Main Riff (x1)

Verse 2
e|-----------------------------------------------------------------------------------|
B|-----------------------------------------------------------------------------------|
G|------------------------6-----4-----2-------------------------222-------222--------|
D|-222-222---222-222------6-----4-----2------222-------222------222-------222--------|
A|-222-222---222-222-(x2)-4(x8)-2(x8)-0(x16)-222-------222------000-0(x6)-000-0(x6)--|
E|-000-000---000-000-------------------------000-0(x6)-000-0(x6)----x---------x------|
                                                 x         x  
 
e|---------------------------|
B|---------------------------|
G|-6-----4------2------4-----|
D|-6-----4------2------4-----|
A|-4(x8)-2(x8)--0(x16)-2(x5)-|
E|---------------------x-----|

Chorus (x1)

Bridge/Solo (x2)

e|---------------------------------|
B|---------------------------------|
G|-------2------6-----4-----2------|
D|-2-----2------6-----4-----2------|
A|-2-----0(x16)-4(x8)-2(x8)-0(x16)-|
E|-0(x16)-------------------*------| 

SECOND TIME THROUGH SWITCH LAST NOTE* TO HIGH "E"

e|--------|
B|--------|
G|-9------|
D|-9------|
A|-7(x16)-|
E|--------| 

Muted Part

e|------------------0~-----|
B|--------------------0~---|
G|-9------4------2~-----2~-|
D|-9------4------2~--------|
A|-7(x16)-2(x16)-0~--------|
E|-------------------------|

Pick-Up

e|--------------|
B|--------------|
G|-7-----2------|
D|-7-----2------|
A|-5(x6)-0(x8)--|
E|--------------|

Chorus (x2)

Second time slowed rhythm

*Ending*

e|-------------------|
B|-------------------|
G|-44-4-44444-4-4444-|
D|-44-4-44444-4-4444-|
A|-22-2-22222-2-2222-|
E|-------------------|

e|----|
B|----|
G|----|
D|-22-|
A|-22-|
E|-00-|


************************************

| /   slide up
| \   slide down
| h   hammer-on
| p   pull-off
| ~   vibrato
| +   harmonic
| x   Mute note
| b   Bend
| pb  Pre-bend
| br  Bend release
| pbr Pre-bend release
| brb Bend release bend

************************************
Tap to rate this tab
# A B C D E F G H I J K L M N O P Q R S T U V W X Y Z