Song name
# A B C D E F G H I J K L M N O P Q R S T U V W X Y Z

Just Another Band - Were Just Kids tab

-------------------------------------------------------------------------------
			    WE'RE JUST KIDS - Just Another Band
-------------------------------------------------------------------------------
Tabbed by: NoSnowBear
Email: avespestad@ymail.com

Tuning: Drop-D

Rhythm Guitar

Intro/Chorus

e|------------------------|
B|------------------------|
G|-4----------7-----------|
D|-4-----5----7-----7-----|
A|-2(x8)-5----5(x8)-7-----|
E|-------5(x8)------7(x8)-|

Verse 1 (muted)

e|----------------------------|
B|----------------------------|
G|----------------------------|
D|-4-----12-----7-------------|
A|-2(x8)-10(x8)-5(x8)-777-777-|  X2
E|--------------------777-777-|

e|---------------------------------------------|
B|---------------------------------------------|
G|---------------------------------------------|
D|-4-----12-----7----------4-----12------------|
A|-2(x8)-10(x8)-5(x8)-7----2(x8)-10(x8)-7------|
E|--------------------7(x8)-------------7(x16)-|

CHORUS

Breakdown

e|------------------------------------|
B|------------------------------------|
G|------------------------------------|
D|-0-000-0-77---------0-000-0-77------|
A|-0-000-0-77-4/5\4/5-0-000-0-77-4/5--|
E|-0-000-0-77-4/5\4/5-0-000-0-77-4/5--|
     xxx                xxx

Verse 2 

(muted)
e|--------------------------|
B|--------------------------|
G|--------------------------|
D|-4-----12-----7-----------| 
A|-2(x8)-10(x8)-5(x8)-7-----|  X2
E|--------------------7(x8)-|


e|------------------------------------------|
B|------------------------------------------|
G|-4---------------------4------------------|
D|-4-----5-----0---------4-----5-----7------|
A|-2(x4)-5-----0---------2(x4)-5-----7------|
E|-------5(x4)-0-(pause)-------5(x4)-7(x16)-|
                                     x
CHORUS

Bridge

e|-----------------------------------------------------------------|
B|-----------------------------------------------------------------|
G|-----------------------------------------------------------------|
D|-22222-xx-xx-xxxx-55555-xx-xx-xxxx-00000~--0000-77-77-77-77-7777-|
A|-22222-xx-xx-xxxx-55555-xx-xx-xxxx-00000~--0000-77-77-77-77-7777-|
E|-22222-xx-xx-xxxx-55555-xx-xx-xxxx-00000~--0000-77-77-77-77-7777-|

e|-------------------------------------|
B|-------------------------------------|
G|-------------------------------------|
D|-2------5------0------7-7-7-7777-5~--|
A|-2------5------0------7-7-7-7777-5~--|
E|-2(x16)-5(x16)-0(x16)-7-7-7-7777-5~--|

Interlude (DrumBeat)

e|-------------------------------------|
B|-------------------------------------|
G|-------------------------------------|
D|-0~~~h2~~~/5~------0~~~h2~~~/5-------|
A|-0~~~h2~~~/5~------0~~~h2~~~/5-------|
E|-0~~~h2~~~/5~------0~~~h2~~~/5(x16)--|
                               x
Chorus (Quarters)

e|------------------------------------------|
B|------------------------------------------|
G|-4----------7-----------4----------7------|
D|-4-----5----7------7----4-----5----7------|
A|-2(x4)-5----5(x4)--7----2(x4)-5----5(x16)-|
E|-------5(x4)-------7(x4)------5(x4)-------|
                                      x
CHORUS

Breakdown/Ending

e|------------------------------------|
B|------------------------------------|
G|------------------------------------|
D|-0-000-0-77---------0-000-0-77------|
A|-0-000-0-77-4/5\4/5-0-000-0-77-4/5--|
E|-0-000-0-77-4/5\4/5-0-000-0-77-4/5--|
     xxx                xxx

|-------------------------------|
B|------------------------------|
G|------------------------------|
D|-0-000-0-77---------0-000-0~--|
A|-0-000-0-77-4/5\4/5-0-000-0~--|
E|-0-000-0-77-4/5\4/5-0-000-0~--|
     xxx                xxx


************************************

| /   slide up
| \   slide down
| h   hammer-on
| p   pull-off
| ~   vibrato
| +   harmonic
| x   Mute note
| b   Bend
| pb  Pre-bend
| br  Bend release
| pbr Pre-bend release
| brb Bend release bend

************************************
Tap to rate this tab
 
# A B C D E F G H I J K L M N O P Q R S T U V W X Y Z