Song name
# A B C D E F G H I J K L M N O P Q R S T U V W X Y Z

Just Another Band - Forget About Me tab

-------------------------------------------------------------------------------
                             FORGET ABOUT ME - Just Another Band
-------------------------------------------------------------------------------
Tabbed by: NoSnowBear
Email: avespestad@ymail.com

Tuning: Drop D

Lead Guitar

Intro
e|-----------------------------------| 
B|-----------------------------------|
G|-15-15-15-15-15-15-15-////---------|
D|-x--x--x--x--x--x--x--////(slide)--|
A|-13-13-13-13-13-13-13-////---------|
E|-----------------------------------|

e|-13--13--13-----10--13--13--13-----10----|
B|---11--11--11-13------11--11--11-13--11~-|
G|-----------------------------------------|
D|-----------------------------------------|
A|-----------------------------------------|
E|-----------------------------------------|

Verse 1
e|--------------------------------|
B|--------------------------------|
G|--14-1414-1415-1515-1515151515--|  X2
D|--x--x-x--x-x--x-x--x-x-x-x-x---|
A|--12-1212-1213-1313-1313131313--|
E|--------------------------------|

e|-------------------------------------------------------------|
B|-------------------------------------------------------------|
G|-3-------14-1414-1415-1515-1515151515--10-1010-108-88-888888-|
D|-x-------x--x-x--x-x--x-x--x-x-x-x-x---x--x-x--x-x-xx-xxxxxx-|
A|-1-(x32)-12-1212-1213-1313-1313131313--8--8-8--8-6-66-666666-|
E|-------------------------------------------------------------|

Pre-Chorus
e|------------------10-----|
B|------------------12b^15-|
G|-5-5-5778-8888-----------|
D|-x-x-xxxx-xxxx-----------|
A|-3-3-3556-6666-----------|
E|-------------------------|

Chorus
e|----------------------------|
B|----------------------------|
G|----33-----------33---------|
D|-11-33-33-55--11-33-33-5553-|
A|-11-11-33-55--11-11-33-5553-|
E|-11----33-55--11----33-5553-|

e|----------------------------------------|
B|----------------------------------------|
G|-10-10-10-1010-3-3-3-3-7-7-7-77-5-5-5-5-|
D|-x--x--x--x-x--x-x-x-x-x-x-x-xx-x-x-x-x-|
A|-8--8--8--8-8--1-1-1-1-5-5-5-55-3-3-3-3-|
E|----------------------------------------|

Chorus Ending
e|-----------|
B|-----------|
G|-3------55-|
D|-x------xx-|
A|-1-(x8)-33-|
E|-----------|

Main Riff
e|-13--13--13------10-13--13--13--13---|
B|---11--11--11-13------11--11--13--13-|
G|-------------------------------------|  X2
D|-------------------------------------|
A|-------------------------------------|
E|-------------------------------------|

Verse 2 (Delayed Guitar) FAST!     and then...
e|------------------|          |----------------------------|
B|--------11--------|          |----------------------------|
G|--10-8----10-8-10-| X6       |-10-1010-10--10-1010-101010-|
D|-8----8-----------|          |-x--x-x--x---x--x-x--x-x-x--|
A|------------------|          |-8--8-8--8---8--8-8--8-8-8--|
E|------------------|          |----------------------------|


e|-------------------------------------------------------------------|
B|-------------------------------------------------------------------|
G|-15------10-----7------5------3-33-3333-33-33/7-5-55-5555-55-55555-|
D|-x-------x------x------x------x-xx-xxxx-xx-xx/x-x-xx-xxxx-xx-xxxxx-|
A|-13-(x6)-8-(x8)-5-(x6)-3-(x8)-1-11-1111-11-11/5-3-33-3333-33-33333-|
E|-------------------------------------------------------------------|

Pre-Chorus
e|--------------------------------------|
B|--------------------------------------|
G|-5-5-5778-8888887-5-5-5778-888-101010-|
D|-x-x-xxxx-xxxxxxx-x-x-xxxx-xxx-x-x-x--|
A|-3-3-3556-6666665-3-3-3556-666-8-8-8--|
E|--------------------------------------|

Chorus 2
e|-6-------|
B|-4-(x64)-|
G|---------|
D|---------|
A|---------|
E|---------|

e|----------------------------------------|
B|----------------------------------------|
G|-10-10-10-1010-3-3-3-3-7-7-7-77-5-5-5-5-|
D|-x--x--x--x-x--x-x-x-x-x-x-x-xx-x-x-x-x-|
A|-8--8--8--8-8--1-1-1-1-5-5-5-55-3-3-3-3-|
E|----------------------------------------|

Chorus Ending
e|---------------|
B|---------------|
G|-3------5------|
D|-x------x------|
A|-1-(x8)-3-(x8)-|
E|---------------|


Bridge
e|-13--13--13--13-10----10-11-----11------6--6--6--6----8888-8888-8-8888-|
B|---11--11--11-------11--------11---11-----6--6--6--6--6666-6666-6-6666-|
G|-----------------------------------------------------------------------|
D|-----------------------------------------------------------------------|
A|-----------------------------------------------------------------------|
E|-----------------------------------------------------------------------|

e|-13--13--13--13--10--10--10--10---88xx-x88xx-x88xx-x\\\\-|
B|---11--11--11--11--11--11--11--11-66xx-x66xx-x66xx-x\\\\-|
G|---------------------------------------------------------|
D|---------------------------------------------------------|
A|---------------------------------------------------------|
E|---------------------------------------------------------|

Rest for Interlude

CHORUS 2 (with pause at "Drinks won't bring the death of me")

Guitar Solo Til End

Last Note
e|-----|
B|-----|
G|-----|
D|-15~-|
A|-x-~-|
E|-13~-|


************************************

| /   slide up
| \   slide down
| h   hammer-on
| p   pull-off
| ~   vibrato
| +   harmonic
| x   Mute note
| b   Bend
| pb  Pre-bend
| br  Bend release
| pbr Pre-bend release
| brb Bend release bend

************************************
Tap to rate this tab
# A B C D E F G H I J K L M N O P Q R S T U V W X Y Z