Song name
# A B C D E F G H I J K L M N O P Q R S T U V W X Y Z

Just Another Band - Were Just Kids tab

-------------------------------------------------------------------------------
                             WE'RE JUST KIDS - Just Another Band
-------------------------------------------------------------------------------
Tabbed by: NoSnowBear
Email: avespestad@ymail.com

Tuning: Drop-D

Lead Guitar Part

Intro
e|--------------------------------------15p14----------|
B|-------15----------------15-----------------14h15----|
G|----------------13-----------------------------------|  
D|-12-12----12-12----12-12----12-12-12-----------------|  X6
A|-----------------------------------------------------|
E|-----------------------------------------------------|

Verse 1
   
00:30 "Cause I'm, Up and Out, Out of sight..."
(muted)
e|-----------------------------------------------------------------------------------|
B|--------------------------------------------------------------------------55555555-|
G|------------------77-----------------------------------------77---7777777----------|
D|----4-5-7-4----4----77---4-5-7-4--4-4h5/7777---4-5-7-4----4----77------------------|
A|--55-5-5----55---5-----55-5-5----------------55-5-5----55---5----------------------|
E|-----------------------------------------------------------------------------------|

Chorus

e|------------------------------------------------|
B|------------------------------------------------|
G|-11-----9--7-7------9--11-11-----14------9------|
D|-x------x--x-x------x--x--x------x-------x------|
A|-9-(x5)-7--5-5-(x4)-7--9--9-(x7)-12-(x3)-7-(x5)-|
E|------------------------------------------------|

e|----------------------------------------xxxx--|
B|----------------------------------------xxxx--|
G|-11-----9--7-7------6--7--7------9------xxxx--|
D|-x------x--x-x------x--x--x------x------xxxx--|
A|-9-(x5)-7--5-5-(x4)-4--5--5-(x7)-7-(x4)-xxxx--|
E|----------------------------------------xxxx--|

INTRO X2

Verse 2
(12's, not one and twos)
e|----------------------------------------------------------------|
B|----------------------------------------------------------------|
G|-----14------14------14------14------14------14------14------14-|  X2
D|-1212--121212--121212--121212--121212--121212--121212--121212---|
A|----------------------------------------------------------------|
E|----------------------------------------------------------------|

e|-------17-------17-------------17-------17-----------|
B|-14h15----14h15----14h15-14h15----14h15----14h15-14--|
G|-----------------------------------------------------|
D|-----------------------------------------------------|
A|-----------------------------------------------------|
E|-----------------------------------------------------|

e|---------------15----14---|
B|----15--------------------|
G|-------14-12-----14----14-|
D|-12-----------------------|
A|--------------------------|
E|--------------------------|

e|-------17-------17-------------17-------17-------------17----17----------17----17-----|
B|-14h15----14h15----14h15-14h15----14h15----14h15-----15----15----15----15----15----15-|
G|---------------------------------------------------14----14----14----14----14----14---|
D|--------------------------------------------------------------------------------------|
A|--------------------------------------------------------------------------------------|
E|--------------------------------------------------------------------------------------|

CHORUS (without guitar scratches at end)

Bridge
e|------------------------------------------------------------------------|
B|------------------------------------------------------------------------|
G|-4------11-----7------14------999--11-----11-12-11-99-99-66-66--666/4---|
D|-x------x------x------x-------xxx--x-------x-x-x---xx-xx-xx-xx--xxx/x---|
A|-2-(x8)-9-(x8)-5-(x8)-12-(x8)-777--9-(x12)-9/10/9--77-77-44-44--444/2---|
E|------------------------------------------------------------------------|

e|----------------------------------------------------------------------------|
B|----------------------------------------------------------------------------|
G|-4------11-----7------14------18-18-18-19-------21-21-21-21--18-18-18-18/7--|
D|-x------x------x------x-------x--x--x--x--------x--x--x--x---x--x--x--x--x--|
A|-2-(x8)-9-(x8)-5-(x8)-12-(x8)-16-16-16-17-(x16)-19-19-19-19--16-16-16-16/5--|
E|----------------------------------------------------------------------------|

Interlude
Interlude (DrumBeat)

e|-------------------------------------|
B|-------------------------------------|
G|-------------------------------------|
D|-0~~~h2~~~/5~------0~~~h2~~~/5-------|
A|-0~~~h2~~~/5~------0~~~h2~~~/5-------|
E|-0~~~h2~~~/5~------0~~~h2~~~/5(x16)--|
                               x
Chorus (Quarters)

e|------------------------------------------|
B|------------------------------------------|
G|-4----------7-----------4----------7------|
D|-4-----5----7------7----4-----5----7------|
A|-2(x4)-5----5(x4)--7----2(x4)-5----5(x16)-|
E|-------5(x4)-------7(x4)------5(x4)-------|
                                      x

CHORUS
INTRO/ENDING

************************************

| /   slide up
| \   slide down
| h   hammer-on
| p   pull-off
| ~   vibrato
| +   harmonic
| x   Mute note
| b   Bend
| pb  Pre-bend
| br  Bend release
| pbr Pre-bend release
| brb Bend release bend

************************************
Tap to rate this tab
# A B C D E F G H I J K L M N O P Q R S T U V W X Y Z