Just Got Started Lovin You - James Otto tab

Just Got Started Lovin You
James Otto
Standard Tuning

Tabbed by Will Jenkins

**When Am comes, strum the strings open, hammer the Am, then strum Am**


Intro:                                                   mhmmm
e------------------------------10-12-----------------------------------|
b--10^12--10^12--10---------12-------10--------------------------------|
g-------------------12-9----------------12-9----/12--------------------|
d------------------------12------------------12------------------------|
a---------------------------------------------------------14p12-12p10--|
E----------------------------------------------------------------------|

Verse:
 G
You dont have to go now honey
                                   Am
Call and tell em you won’t be in today
 C                                 D
Baby there aint nothin at the office
                        G
So important it cant wait

Riff
e--10-8-7--10-8-7-8-7-|
b--10-8-8--10-8-8-8-8-|
g---------------------|
d---------------------|
a---------------------|
E---------------------|

 G
Im thankful for the weekend
                                        Am
But two days in heaven just aint gonna do
         C
This is gonna take forever darlin
 D
Girl I just got started lovin you

Riff
e--10-10-10-10-10-10-10-10--|
b--12-10-8--12-10-8--10-8---|
g---------------------------|
d---------------------------|
a---------------------------|
E---------------------------|

G
Whats the point in fightin what we’re feelin
                          Am
We both know well never win
 C
Aint this what were missin
             D                            G
Let’s just stop all this resistin and give in
 G
Let me wrap my arms around you
                                       Am
You know you dont want to leave this room
 C
Come back and let me hold you darlin
 D
Girl I just got started lovin you

Riff
e----------------------|
b--------------5-------|
g------------4---------|
d--------2-5-----------|
a----2-5---------------|
E--3-------------------|

Chorus:
 Em                  Bm
What can I say Ive never felt this way
 C                             G
Girl youre like a dream come true
       Em
After all the love weve made
    Bm
It sure would be a shame
       C                      Am
If we let this moment end so soon

Riff
e---------------------|
b--12-----------------|
g----12-9-------------|
d---------10-9--------|
a-------------10------|
E---------------------|

 G
So wont you lay back down beside me
                                      Am
Girl just like I know youre wantin to
 C
Trust me when I tell you darlin
 D                              G
Girl I just got started lovin you

Solo

e------------------------------10-12----------------------------------|
b--10^12--10^12--10---------12-------10---------10-10-10-12-10--------|
g-------------------12-9----------------12-9-12----------------12-9---|
d------------------------12-------------------------------------------|
a---------------------------------------------------------------------|
E---------------------------------------------------------------------|

e-------------------------------------------------------------------|
b---------10-10-10-12-10-------10-10-10-12-10-----------------------|
g----9-12---------------12-9-12---------------12-9---12-------------|
d--12----------------------------------------------12---------------|
a-------------------------------------------------------------------|
E-------------------------------------------------------------------|

Riff
e----------------------|
b--------------5-------|
g------------4---------|
d--------2-5-----------|
a----2-5---------------|
E--3-------------------|

Chorus:
 Em                  Bm
What can I say Ive never felt this way
 C                             G
Girl youre like a dream come true
       Em
After all the love weve made
    Bm
It sure would be a shame
       C                      Am
If we let this moment end so soon

Riff
e---------------------|
b--12-----------------|
g----12-9-------------|
d---------10-9--------|
a-------------10------|
E---------------------|

 G
Im thankful for the weekend
                                        Am
But two days in heaven just aint gonna do
 C
This is gonna take forever darlin
 D
Girl I just got started lovin you

Riff
e--10h12p10-7-|
b-------------|
g-------------|
d-------------|
a-------------|
E-------------|
 C
Come back and let me hold you darlin
 D
Girl I just got started lovin you

G G   G* G G   G* G G   G* G G   G* G G   G* G G (Play the G* with E open)

Outro
                                                            mhmmm
e------------------------------10-12-----------------------------------|
b--10^12--10^12--10---------12-------10--------------------------------|
g-------------------12-9----------------12-9----/12--------------------|
d------------------------12------------------12------------------------|
a---------------------------------------------------------14p12-12p10--|
E----------------------------------------------------------------------|
Tap to rate this tab
 
# A B C D E F G H I J K L M N O P Q R S T U V W X Y Z