Song name
# A B C D E F G H I J K L M N O P Q R S T U V W X Y Z

Just Jack - Stars In Thier Eyes tab

-------------------------------------------------------------------------------
			     Starz In Their Eyes - Just Jack
-------------------------------------------------------------------------------
Tabbed by: Aron S
Email: goodsum@hotmail.com

Tuning: standard

*Just so you know I can spell!! Whoever moderated this song changed the spelling of the 
for some reason. I can't do anything about it.


Main Rhythm:

e|------------------------|
B|------------------------|
G|--8-88-8-88--7-77-------|
D|--8-88-8-88--7-77-8-88--|
A|--6-66-6-66--5-55-8-88--|
E|------------------6-66--|


Intro/Chorus (2nd Guitar):

e|--11-10-11-10-11-10-11p8-88-6--10-11--|
B|--11-10-11-10-11-10-11p8-88-6--10-11--|
G|--------------------------------------|
D|--------------------------------------|
A|--------------------------------------|
E|--------------------------------------|

e|--11-10-11-10-11-10-11p8-88-6--6-10-11--|
B|--11-10-11-10-11-10-11p8-88-6--6-10-11--|
G|----------------------------------------|
D|----------------------------------------|
A|----------------------------------------|
E|----------------------------------------|

| /  slide up
| \  slide down
| h  hammer-on
| p  pull-off
| ~  vibrato
| +  harmonic
| x  Mute note
===============================================================================
Tap to rate this tab
 
# A B C D E F G H I J K L M N O P Q R S T U V W X Y Z