Song name
# A B C D E F G H I J K L M N O P Q R S T U V W X Y Z

Just Jack - Stars In Their Eyes tab

Just Jack - Starz in their eyes

Intro + chorus(strumming pattern is pretty easy to find out)


    D#       Dm     Gm
E-------------------------------------------------------|
B--(8)------(6)-----3-----------------------------------|
G---8--------7------3-----------------------------------|
D---8--------7------5-----------------------------------|
A---6--------5------5-----------------------------------|
E------------------(3)----------------------------------|


Interlude


   D#                            Dm           Gm
E-----11-----11------11---------------------------------10-10-10-----|
B-----11-----11------11---------(10)(10)(10)------------11-11-11-----|
G----(12)---(12)----(12)---------10--10--10---12-12-12--12-12-12-----|
D--13----13------13---------13---12--12--12---12-12-12---------------|
B--13----13------13---------13---12--12--12---10-10-10---------------|
E-(11)--(11)----(11)--------11---10--10--10--------------------------|

   D#                           Dm          Gm
E-----11-----11------11-----------------------------------------10-10--|
B-----11-----11------11--------(10)(10)(10)---------------------11-11--|
G----(12)---(12)----(12)--------10--10--10--12-12-12--12-12-12--12-12--|
D--13----13------13--------13---12--12--12--12-12-12--12-12-12---------|
B--13----13------13--------13---12--12--12--10-10-10--10-10-10---------|
E-(11)--(11)----(11)-------11---10--10--10-----------------------------|


  D#                            Dm           Gm

E-----11-----11------11---------------------------------10-10-10-----|
B-----11-----11------11---------(10)(10)(10)------------11-11-11-----|
G----(12)---(12)----(12)---------10--10--10---12-12-12--12-12-12-----|
D--13----13------13---------13---12--12--12---12-12-12---------------|
B--13----13------13---------13---12--12--12---10-10-10---------------|
E-(11)--(11)----(11)--------11---10--10--10--------------------------|

   D#                           Dm          Gm

E-----11-----11------11-----------------------------------------10-10--|
B-----11-----11------11--------(10)(10)(10)---------------------11-11--|
G----(12)---(12)----(12)--------10--10--10--12-12-12--12-12-12--12-12--|
D--13----13------13--------13---12--12--12--12-12-12--12-12-12---------|
B--13----13------13--------13---12--12--12--10-10-10--10-10-10---------|
E-(11)--(11)----(11)-------11---10--10--10-----------------------------|


I think this would be usefull to you,and I think it's the most complete tab of this song 
UG.have fun!
Tap to rate this tab
# A B C D E F G H I J K L M N O P Q R S T U V W X Y Z