Guitaretab - guitar tabs
Song name
# A B C D E F G H I J K L M N O P Q R S T U V W X Y Z

Just Jack - Morning Mourning tab

Intro. Played Freely

E|------------------|------------------|
B|----------1-------|----------0-------|
G|-----2------2---2-|-----2------2---2-|
D|---2---2------2---|---1---1------1---|
A|------------------|-2----------------|
E|-2----------------|------------------|

1st & 2nd Verse

E|-------2-|-------0-|-------2-|-------0-|-------2-|-------0-|
B|-----0---|-----0---|-----0---|-----0---|-----0---|-----0---|
G|---0-----|---0-----|---0-----|---0-----|---0-----|---0-----|
D|---------|---------|---------|---------|---------|---------|
A|---------|-3-------|---------|-3-------|---------|-3-------|
E|-0-------|---------|-0-------|---------|-0-------|---------|
                                                                 X2

E|-------5-------|-----------------|
B|-----3-----3---|-------0---1-0---|
G|---2---------2-|-----2---------2-|   
D|-0-------------|---2-------------|
A|---------------|-0---------------|
E|---------------|-----------------|


Strings Bridge. (Chords in background)

F - B  Em - Em


3rd Verse: Smoke the roach left in the ashtray ...

E|-------2-|-------0-|-------2-|-------0-|-------2-|-------0-|
B|-----0---|-----0---|-----0---|-----0---|-----0---|-----0---|
G|---0-----|---0-----|---0-----|---0-----|---0-----|---0-----|
D|---------|---------|---------|---------|---------|---------|
A|---------|-3-------|---------|-3-------|---------|-3-------|
E|-0-------|---------|-0-------|---------|-0-------|---------|

E|-------5-------|-----------------|
B|-----3-----3---|-------0---1-0---|
G|---2---------2-|-----2---------2-|   
D|-0-------------|---2-------------|
A|---------------|-0---------------|
E|---------------|-----------------|


2nd Bridge (X2): I pick my way through crusty dishes ...

E|-------------|-------------|-------------|------------|
B|-------0-----|-------0-----|-------0-----|-------0----|
G|-----0---0---|-----2---2---|-----0---0---|-----2---2--|
D|---2---------|---2---------|---0---------|---2--------|
A|-------------|-------------|-------------|-0--------0-|
E|0----------0-|-2---------2-|-3---------3-|------------|


Musical Bridge:

E|-------------------------------|
B|-------------------------------|
G|---------0---2-4-5-4-2-0-------|
D|-----2-4-----------------4-2---|
A|-3---------------------------3-|
E|-------------------------------|
[ Tab from: http://www.guitaretab.com/j/just-jack/96109.html ]
E|------------------|------------------|
B|----------1-------|----------0-------|
G|-----2------2---2-|-----2------2---2-|
D|---2---2------2---|---1---1------1---|
A|------------------|-2----------------|
E|-2----------------|------------------|


Chorus (X4): La, la, la, la, lala, I let you go so reluctantly... 

EM  CMaj7  DSUS2  AM

0     0       0      0   
0     0       3      1
0     0       2      2 
2     2       0      2
2     3       x      0
0     x       x      x

Strumming Pattern: Q   E E Q    E E

4th Verse: The say the devil's in the detail ...

Bm - G - Bm - G - Bm - G - F# - G  A (strum individually)

E|------2-----|------3-----|        E|------2----|----3------5|
B|------3-----|------3-----|        B|------2----|----3------5|     
G|----4-------|------4-----|   X3   G|------3----|----4------6|    
D|--4---------|----5-------|        D|----4------|----5------7|       
A|2-----------|--5---------|        A|--4--------|--5------7--|      
E|----------2-|3-----------|        E|2--------2-|3------5----|          





3rd Bridge (X4): I really want you to stay ... 

E|-------------|-------------|-------------|------------|
B|-------0-----|-------0-----|-------0-----|-------0----|
G|-----0---0---|-----2---2---|-----0---0---|-----2---2--|
D|---2---------|---2---------|---0---------|---2--------|
A|-------------|-------------|-------------|-0--------0-|
E|0----------0-|-2---------2-|-3---------3-|------------|


Chorus (X4): La, la, la, la, lala, I let you go so reluctantly ...

EM  CMaj7  DSUS2 - AM


Last Bridge to the end (X4): I really want you to stay ...


E|-------------|-------------|-------------|------------|
B|-------0-----|-------0-----|-------0-----|-------0----|
G|-----0---0---|-----2---2---|-----0---0---|-----2---2--|
D|---2---------|---2---------|---0---------|---2--------|
A|-------------|-------------|-------------|-0--------0-|
E|0----------0-|-2---------2-|-3---------3-|------------|


Alternative for the Bridges:

E|---------0------|---------0-------|-------0------|-------7-------|
B|-------0---0----|-------0---0-----|-----3---3----|-----5---5-----|
G|-----0------0---|-----2-------2---|---4------4---|---6-------6---|
D|---2----------2-|---4-----------4-|-5----------5-|-7-----------7-|
A|----------------|-----------------|--------------|---------------|
E|----------------|-----------------|--------------|---------------|
Related for Morning Mourning tab