Song name
# A B C D E F G H I J K L M N O P Q R S T U V W X Y Z

Just Jinjer - For All We Know chords

Highlighted       Show chord diagrams
-----------------------------
JUST JINJER - FOR ALL WE KNOW
-----------------------------

CHORD PATTERNS
--------------
E      022100
H      799877
F#m    244222
A      577655

This lead that is played in the intro is played through-out the choruses as well.

E                          H 
-|------------------------|----------------------|-
-|------------------------|----------------------|-
-|-6--4-----4h6---(6)/9---|-6--4------------4----|-
-|-------7----------------|-------7--6---7----7--|-
-|------------------------|----------------------|-
-|------------------------|----------------------|-

F#m                         A          H
-|------------------------|----------------------|-
-|------------------------|----------------------|-
-|-6--4------4h6----------|-7--6--4--------------|-
-|------7-----------------|---------7-6-7--------|-
-|------------------------|----------------------|-
-|------------------------|----------------------|-


E             A             F#m 
Life is all I know and so I learn
                  H 
And don't we all?
E                    A             
For this has been to me the best of
F#m                    H
All and that't not all


            E           H   
For all we know time is up perhaps
           F#m       A      H
We've made it to the end of time
      E         H                      
We know time is up what's left to
F#m                F#m         H  
See will just be seen


    E              A
And so I count the years but I
    F#m                H
Forget and don't we all?
    E             A
And do you ever feel you've had
     F#m            H
Enough you've had enough


            E           H   
For all we know time is up perhaps
           F#m       A      H
We've made it to the end of time
      E         H                      
We know time is up what's left to
F#m                F#m        H  
See will just be seen


   F#m                    A
Oh I, know I've felt this way before
                    E       H
Know I've felt this way 
   F#m                  A
oh I, know I's not too far to go know it's not
  E            H
Too far, to go


            E           H   
For all we know time is up perhaps
           F#m       A      H
We've made it to the end of time
      E         H                      
We know time is up what's left to
F#m                F#m        H  
See will just be seen

OUTRO w/CHORUS
E       H       F#m      A    H
E       H       F#m      F#m      F#m      F#m      H
E
Tap to rate this tab
 
# A B C D E F G H I J K L M N O P Q R S T U V W X Y Z