Song name
# A B C D E F G H I J K L M N O P Q R S T U V W X Y Z

Just Like Vinyl - Kite tab

Hi every body i'm working on this song right now but with this you have a lot of 
the song, so enjoy.
Tab by phantomonthehorizon

Intro

e---0------12--------'
b---0--10--10--------'   This are the 3 first chord
g---6--9---9---------'   hear the song to get the strum.
d---7--7-------------'
a---5----------------'
D--------------------'

  Play this again and then this
e---0------12--------'---------------------------'
b---0--10--10--------'---------------------------'  
g---6--9---9---------'-----6-7-6-9-7-6-----------'   
d---7--7-------------'----7-7-7-7-7-7--9-7-9-----'
a---5----------------'---------------------------'
D--------------------'--9------------------------'

The verse is the same.

Chorus

 On the part or 5's play the harmonics.
e-----------------'--------------------------'
b---------h5------'--------------------------'  
g---------h5------'--9-11-12--14s-16s-14-12--'   
d---10----h5------'--x-x--x---x---x---x--x---'
a---9-------------'--7-9--10--12s-14s-12-10--'
D---10------------'--------------------------'
Hear the song to get the strum ;D 



And This is the other part

e----------------------------------------------'
b----------------------------------------------'
g----------------------------------------------'
d----------------------------------------------'
a----0-2-3-2-0------------0-2s-5-3-2vvv--------' 
D--5-----------5-2-0---5-----------------------' 

v=pull down the string
s=slide
h=harmonic

http://www.justlikevinyl.com/
Tap to rate this tab
 
# A B C D E F G H I J K L M N O P Q R S T U V W X Y Z