Song name
# A B C D E F G H I J K L M N O P Q R S T U V W X Y Z

Just Like Vinyl - Epiphany tab

-----------------------------------------------------------------------------
			     Epiphany- Just Like Vinyl
-----------------------------------------------------------------------------
Tabbed by:nevermindmyname
Email: shotgunhalospartan@yahoo.com please email with ?s +comments.

Tuning: Dropped D


          Intro and Verse
e|--D---|---------------------------------|----------------------------------|
B|--R---|---------------------------------|----------------------------------|
G|--U---|--9-9--x-------------------------|---9-9--x---------------11----9---|
D|--M---|--7-7--x---9h11p9--------9-------|---7-7--x----(9)--11--------------|
A|--S---|--9-9--x-----------11------------|---9-9--x-------------------------|
E|--Z---|---------------------------------|----------------------------------|

e|---------------------------------------------------------------------------|
B|---------------------------------------------------------------------------|
G|---------9-----------------7------------------5-----------------4----------|
D|------7---------------5-----------------3-----------------2----------------|
A|--9---------------7----------------5-----------------4---------------------|
E|---------------------------------------------------------------------------|

e|--------------------|
B|--------------------|
G|-------------5------|
D|-------3------------|
A|--5-----------------|
E|--------------------|



   Chorus
e|----------|
B|----------|
G|----------|
D|----------|
A|----------|
E|----------|



e|---------------------------------------------------------------------------|
B|---------------------------------------------------------------------------|
G|---------------------------------------------------------------------------|
D|----4-4--x-----7---4b--4----0-0-0---4-4--x-----7---4b----4-----------------|
A|----4-4--x------------------0-0-0---4-4--x---------------------------------|
E|----4-4--x------------------0-0-0---4-4--x---------------------------------|

e|-------------------------------------------------------------------|
B|-------------------------------------------------------------------|
G|---------------------------9/--11/---14/---16/---18/-19/-18--------|
D|----0-0-0-0-0-0---5--x---------------------------------------------|
A|----0-0-0-0-0-0---5--x-----7/--9/----12/---14/---16/-17/-16--------|
E|----0-0-0-0-0-0---5--x---------------------------------------------|
Tap to rate this tab
 
# A B C D E F G H I J K L M N O P Q R S T U V W X Y Z