Song name
# A B C D E F G H I J K L M N O P Q R S T U V W X Y Z

Just Surrender - New Declaration tab

Hey guys, this is my first tab, enjoy :)

If you have any questions, e-mail me: sagemred@yahoo.co.uk

Thanks! :)

s = Slide
h = Hammer on
~ = Let Ring



e|-------------------8-------------------|
B|--------------8-h9---8-h9-8------------|
G|----10-10--s12--------------h10-8-h10--|
D|---------------------------------------|   X3
A|---------------------------------------|
E|---------------------------------------|

e|-------------------------------------------|
B|--------------8-h9-b11---h9-h11--h9-s8-----|
G|----10-10--s12-------------------------10~~|
D|-------------------------------------------|
A|-------------------------------------------|
E|-------------------------------------------|
Tap to rate this tab
 
# A B C D E F G H I J K L M N O P Q R S T U V W X Y Z