Song name
# A B C D E F G H I J K L M N O P Q R S T U V W X Y Z

Just Surrender - Better To Leave tab

Tabbed by: Joshua Garcia (joshuag523@aol.com)

Tabs for the song: Better To Leave by Just Surrender
Please rate and let me know if you have any corrections. Thank you.


Tuning: Drop C# (C# G# C# F# A# D#)


Intro
Guitar 1:
D#||----------------------------------|----------------------------------|
A#||----------------------------------|----------------------------------|
F#||----------------------------------|----------------------------------|
C#||----5-----5---------5-----5-4-5~--|----5-----5---------4-----4-5-4~--|
G#||--7---5-7---5~--3-----5-3---------|--3---5-3---5-7-5~----5-5---------|
C#||----------------------------------|----------------------------------|


D#||----------------------------------|----------------------------------|
A#||----------------------------------|----------------------------------|
F#||----4-----------------------------|----------------------------------|
C#||------5---7-5~------5-----5-4-5~--|----5-----5---------4-----5/7-4~--|
G#||--7-----7-------3-----5-3---------|--3---5-3---5-7-5~----5-5---------|
C#||----------------------------------|----------------------------------|


Guitar 2 (Dub):
D#||----------------------------------|----------------------------------|
A#||----------------------------------|----------------------------------|
F#||--------------------------4-2-4~--|--------------------------2-4-2~--|
C#||----------------------------------|----------------------------------|
G#||----------------------------------|----------------------------------|
C#||----------------------------------|----------------------------------|


D#||----------------------------------|----------------------------------|
A#||----------------------------------|----------------------------------|
F#||--------------------------4-2-4~--|--------------------------4/5-2~--|
C#||----------------------------------|----------------------------------|
G#||----------------------------------|----------------------------------|
C#||----------------------------------|----------------------------------|


Guitar 3:
D#||----------------------------------------------|
A#||----------------------------------------------|
F#||--9~----7--5~------------5~--------7~---------|
C#||--9~----7--5~------------5~--------7~---------| x2
G#||--7~----5--3~--3-3-x-----3~--------5~--5-5-x--|
C#||-------------------------------4-5------------|
                   . .             . .     . .



Verse
Guitar 1:
D#||------------------------------------------------|
A#||--8--8--8--8--8--8--88888--8--8--8--7--7--7777--|
F#||--7--7--7--7--7--7--77777--7--7--7--7--7--7777--|
C#||------------------------------------------------| x6
G#||------------------------------------------------|
C#||------------------------------------------------|


D#||-------------------------------------------|
A#||--8--8--8--8--8--8--88888--8--8--8--7--77--|
F#||--7--7--7--7--7--7--77777--7--7--7--7--77--|
C#||-------------------------------------------|
G#||-------------------------------------------|
C#||-------------------------------------------|


Guitar 2:
D#||-------------------------------------------|
A#||-------------------------------------------|
F#||--9~-\--7--5~---\--------5~-\------7~---\--|
C#||--9~-\--7--5~---\--------5~-\------7~---\--| x7
G#||--7~-\--5--3~---\--------3~-\------5~---\--|
C#||-------------------------------4-5---------|
                                   . .


Chorus
Guitar 1:
D#||--7-7-0-0-0-0-7-7-0-0-0-0-7-0-8-0-7-7-0-0-0-0-7-7-0-0-0-0-2-0-3-0--|
A#||-------------------------------------------------------------------|
F#||-------------------------------------------------------------------|
C#||-------------------------------------------------------------------|
G#||-------------------------------------------------------------------|
C#||-------------------------------------------------------------------|


D#||--7-7-0-0-0-0-7-7-0-0-0-0-7-0-8-0-7-7-0-0-0-0-7-8-------------10-5--|
A#||--------------------------------------------------7-8-7---5-8-------|
F#||--------------------------------------------------------7-----------|
C#||--------------------------------------------------------------------|
G#||--------------------------------------------------------------------|
C#||--------------------------------------------------------------------|


D#||--7-7-0-0-0-0-7-7-0-0-0-0-7-0-8-0-7-7-0-0-0-0-7-7-0-0-0-0-2-0-3-0--|
A#||-------------------------------------------------------------------|
F#||-------------------------------------------------------------------|
C#||-------------------------------------------------------------------|
G#||-------------------------------------------------------------------|
C#||-------------------------------------------------------------------|


D#||--7-7-0-0-0-0-7-7-0-0-0-0-7-0-8-0-7-7-0-0-0-0-7-8----------|
A#||--------------------------------------------------7-8-7-8--|
F#||-----------------------------------------------------------|
C#||-----------------------------------------------------------|
G#||-----------------------------------------------------------|
C#||-----------------------------------------------------------|


Guitar 2:
D#||--------------------------------------------------|
A#||--------------------------------------------------|
F#||-------------5~--5-5-5~----5~---------------------|
C#||--2~---00~---5~--5-5-5~----5~---55~---0~--0-0-0~--| x3
G#||--2~---00~---3~--3-3-3~----3~---55~---0~--0-0-0~--|
C#||--2~---00~----------------------55~---0~--0-0-0~--|


D#||-------------------------------------------------|
A#||-------------------------------------------------|
F#||-------------5~--5-5-5~----5~--------------------|
C#||--2~---00~---5~--5-5-5~----5~---55~---0~--0-0-x--|
G#||--2~---00~---3~--3-3-3~----3~---55~---0~--0-0-x--|
C#||--2~---00~----------------------55~---0~--0-0-x--|



Pre-Verse
Guitar 1:
D#||----------------------------------|----------------------------------|
A#||----------------------------------|----------------------------------|
F#||----------------------------------|----------------------------------|
C#||----5-----5---------5-----5-4-5~--|----5-----5---------4-----4-5-4~--|
G#||--7---5-7---5~--3-----5-3---------|--3---5-3---5-7-5~----5-5---------|
C#||----------------------------------|----------------------------------|


D#||----------------------------------|----------------------------------|
A#||----------------------------------|----------------------------------|
F#||----4-----------------------------|----------------------------------|
C#||------5---7-5~------5-----5-4-5~--|----5-----5---------4-----5/7-4~--|
G#||--7-----7-------3-----5-3---------|--3---5-3---5-7-5~----5-5---------|
C#||----------------------------------|----------------------------------|


Guitar 2 (Dub):
D#||----------------------------------|----------------------------------|
A#||----------------------------------|----------------------------------|
F#||--------------------------4-2-4~--|--------------------------2-4-2~--|
C#||----------------------------------|----------------------------------|
G#||----------------------------------|----------------------------------|
C#||----------------------------------|----------------------------------|


D#||----------------------------------|----------------------------------|
A#||----------------------------------|----------------------------------|
F#||--------------------------4-2-4~--|--------------------------4/5-2~--|
C#||----------------------------------|----------------------------------|
G#||----------------------------------|----------------------------------|
C#||----------------------------------|----------------------------------|


Guitar 3:
D#||----------------------------------------------|
A#||----------------------------------------------|
F#||--9~----7--5~------------5~--------7~---------|
C#||--9~----7--5~------------5~--------7~---------| x2
G#||--7~----5--3~--3-3-x-----3~--------5~--5-5-x--|
C#||-------------------------------4-5------------|
                   . .             . .     . .



Verse
Guitar 1:
D#||------------------------------------------------|
A#||--8--8--8--8--8--8--88888--8--8--8--7--7--7777--|
F#||--7--7--7--7--7--7--77777--7--7--7--7--7--7777--|
C#||------------------------------------------------| x3
G#||------------------------------------------------|
C#||------------------------------------------------|


D#||-------------------------------------------|
A#||--8--8--8--8--8--8--88888--8--8--8--7--77--|
F#||--7--7--7--7--7--7--77777--7--7--7--7--77--|
C#||-------------------------------------------|
G#||-------------------------------------------|
C#||-------------------------------------------|


Guitar 2:
D#||-------------------------------------------|
A#||-------------------------------------------|
F#||--9-----7--5~---\--------5~-\------7~---\--|
C#||--9-----7--5~---\--------5~-\------7~---\--|
G#||--7-----5--3~---\--------3~-\------5~---\--|
C#||-------------------------------4-5---------|
                                   . .

D#||-------------------------------------------|
A#||-------------------------------------------|
F#||--9~-\--7--5~---\--------5~-\------7~---\--|
C#||--9~-\--7--5~---\--------5~-\------7~---\--| x3
G#||--7~-\--5--3~---\--------3~-\------5~---\--|
C#||-------------------------------4-5---------|
                                   . .


Chorus
Guitar 1:
D#||--7-7-0-0-0-0-7-7-0-0-0-0-7-0-8-0-7-7-0-0-0-0-7-7-0-0-0-0-2-0-3-0--|
A#||-------------------------------------------------------------------|
F#||-------------------------------------------------------------------|
C#||-------------------------------------------------------------------|
G#||-------------------------------------------------------------------|
C#||-------------------------------------------------------------------|


D#||--7-7-0-0-0-0-7-7-0-0-0-0-7-0-8-0-7-7-0-0-0-0-7-8-------------10-5--|
A#||--------------------------------------------------7-8-7---5-8-------|
F#||--------------------------------------------------------7-----------|
C#||--------------------------------------------------------------------|
G#||--------------------------------------------------------------------|
C#||--------------------------------------------------------------------|


D#||--7-7-0-0-0-0-7-7-0-0-0-0-7-0-8-0-7-7-0-0-0-0-7-7-0-0-0-0-2-0-3-0--|
A#||-------------------------------------------------------------------|
F#||-------------------------------------------------------------------|
C#||-------------------------------------------------------------------|
G#||-------------------------------------------------------------------|
C#||-------------------------------------------------------------------|


D#||--7-7-0-0-0-0-7-7-0-0-0-0-7-0-8-0-7-7-0-0-0-0-8-10-8-7-7----7---------|
A#||---------------------------------------------------------10---10-8-7--|
F#||----------------------------------------------------------------------|
C#||----------------------------------------------------------------------|
G#||----------------------------------------------------------------------|
C#||----------------------------------------------------------------------|


Guitar 2:
D#||--------------------------------------------------|
A#||--------------------------------------------------|
F#||-------------5~--5-5-5~----5~---------------------|
C#||--2~---00~---5~--5-5-5~----5~---55~---0~--0-0-0~--| x3
G#||--2~---00~---3~--3-3-3~----3~---55~---0~--0-0-0~--|
C#||--2~---00~----------------------55~---0~--0-0-0~--|


D#||-------------------------------------------------------|
A#||-------------------------------------------------------|
F#||-------------5~--5-5-5~----5~--------------------------|
C#||--2~---00~---5~--5-5-5~----5~---55~---0~--0-0-0-0-0-0--|
G#||--2~---00~---3~--3-3-3~----3~---55~---0~--0-0-0-0-0-0--|
C#||--2~---00~----------------------55~---0~--0-0-0-0-0-0--|



Bridge
Guitar 1:
D#||--0-0-10-0-10-0-0-0-7-0-7-0-0-0-------|--0-0-10-0-10-0-0-0-7-0-7-0-0-0-15-10--|
A#||--------------------------------8-10--|---------------------------------------|
F#||--------------------------------------|---------------------------------------|
C#||--------------------------------------|---------------------------------------|
G#||--------------------------------------|---------------------------------------|
C#||--------------------------------------|---------------------------------------|


D#||--0-0-10-0-10-0-0-0-7-0-7-0-0-0-------|---------------------10-8-8-8--|
A#||--------------------------------8-10--|--10~---8~---7~----------------|
F#||--------------------------------------|-------------------------------|
C#||--------------------------------------|-------------------------------|
G#||--------------------------------------|-------------------------------|
C#||--------------------------------------|-------------------------------|


Guitar 2:
D#||---------------------------------------------------------------------------------|
A#||---------------------------------------------------------------------------------|
F#||--5--5555555--5555559--9999999--9999995--5555555--555555-------------------------|
C#||--5--5555555--5555559--9999999--9999995--5555555--555555--5---5---0---00---0000--|
G#||--3--3333333--3333337--7777777--7777773--3333333--333333--5---5---0---00---0000--|
C#||----------------------------------------------------------5---5---0---00---0000--|



Guitar 1:
D#||--------------15----------------------15-----------|
A#||--------15-------15----15-15----15-------15----15--|
F#||--12-12----12-------12-------12----12-------12-----|
C#||---------------------------------------------------|
G#||---------------------------------------------------|
C#||---------------------------------------------------|


D#||--------------15----------------------15-----------|
A#||--------15-------15----15-15----15-------15----15--|
F#||--14-14----14-------14-------14----14-------14-----|
C#||---------------------------------------------------|
G#||---------------------------------------------------|
C#||---------------------------------------------------|


Guitar 2:
D#||-------------------------------------|
A#||-------------------------------------|
F#||--5555555555555555-7777777777777777--|
C#||--5555555555555555-7777777777777777--|
G#||--3333333333333333-5555555555555555--|
C#||-------------------------------------|


Guitar 1/2:
D#||---------------------------------------------------------------|
A#||----------12-12-12----------12-12-12---------------------------|
F#||--9----9--12-12-12--9----9--12-12-12--9--7---------------------|
C#||--9----9------------9----9------------9--7--555555-0000000000--|
G#||--7----7------------7----7------------7--5--555555-0000000000--|
C#||--------------------------------------------555555-0000000000--|



Guitar 1:
D#||--------------15----------------------15-----------|
A#||--------15-------15----15-15----15-------15----15--|
F#||--12-12----12-------12-------12----12-------12-----|
C#||---------------------------------------------------|
G#||---------------------------------------------------|
C#||---------------------------------------------------|


D#||--------------15----------------------15-----------|
A#||--------15-------15----15-15----15-------15----15--|
F#||--14-14----14-------14-------14----14-------14-----|
C#||---------------------------------------------------|
G#||---------------------------------------------------|
C#||---------------------------------------------------|


D#||--------------15----------------------15-----------|
A#||--------15-------15----15-15----15-------15----15--|
F#||--12-12----12-------12-------12----12-------12-----|
C#||---------------------------------------------------|
G#||---------------------------------------------------|
C#||---------------------------------------------------|


D#||--------------15----------------------15--|
A#||--------15-------15----15-15----15--------|
F#||--14-14----14-------14-------14----14-----|
C#||------------------------------------------|
G#||------------------------------------------|
C#||------------------------------------------|


Guitar 2:
D#||-------------------------------------|
A#||-------------------------------------|
F#||--5555555555555555-7777777777777777--|
C#||--5555555555555555-7777777777777777--|
G#||--3333333333333333-5555555555555555--|
C#||-------------------------------------|


D#||----------------------------------|
A#||----------------------------------|
F#||--5555555555555555-7777777777777--|
C#||--5555555555555555-7777777777777--|
G#||--3333333333333333-5555555555555--|
C#||----------------------------------|



Chorus
Guitar 1/2:
D#||----------------|
A#||----------------|
F#||------------5~--|
C#||--2~---0~---5~--|
G#||--2~---0~---3~--|
C#||--2~---0~-------|


Guitar 1:
D#||--7-7-0-0-0-0-7-7-0-0-0-0-2-0-3-0--|
A#||-----------------------------------|
F#||-----------------------------------|
C#||-----------------------------------|
G#||-----------------------------------|
C#||-----------------------------------|


D#||--7-7-0-0-0-0-7-7-0-0-0-0-7-0-8-0-7-7-0-0-0-0-7-8-------------10-5--|
A#||--------------------------------------------------7-8-7---5-8-------|
F#||--------------------------------------------------------7-----------|
C#||--------------------------------------------------------------------|
G#||--------------------------------------------------------------------|
C#||--------------------------------------------------------------------|


D#||--7-7-0-0-0-0-7-7-0-0-0-0-7-0-8-0-7-7-0-0-0-0-7-7-0-0-0-0-2-0-3-0--|
A#||-------------------------------------------------------------------|
F#||-------------------------------------------------------------------|
C#||-------------------------------------------------------------------|
G#||-------------------------------------------------------------------|
C#||-------------------------------------------------------------------|


D#||--7-7-0-0-0-0-7-7-0-0-0-0-7-0-8-0-7-7-0-0-0-0-8-10-8-7-7----7---------|
A#||---------------------------------------------------------10---10-8-7--|
F#||----------------------------------------------------------------------|
C#||----------------------------------------------------------------------|
G#||----------------------------------------------------------------------|
C#||----------------------------------------------------------------------|


Guitar 2:
D#||-------------------------|
A#||-------------------------|
F#||--5~---------------------|
C#||--5~---55~---0~--0-0-0~--|
G#||--3~---55~---0~--0-0-0~--|
C#||-------55~---0~--0-0-0~--|


D#||--------------------------------------------------|
A#||--------------------------------------------------|
F#||-------------5~--5-5-5~----5~---------------------|
C#||--2~---00~---5~--5-5-5~----5~---55~---0~--0-0-0~--| x2
G#||--2~---00~---3~--3-3-3~----3~---55~---0~--0-0-0~--|
C#||--2~---00~----------------------55~---0~--0-0-0~--|


D#||-------------------------------------------------------|
A#||-------------------------------------------------------|
F#||-------------5~--5-5-5~----5~--------------------------|
C#||--2~---00~---5~--5-5-5~----5~---55~---0~--0-0-0-0-0-0--|
G#||--2~---00~---3~--3-3-3~----3~---55~---0~--0-0-0-0-0-0--|
C#||--2~---00~----------------------55~---0~--0-0-0-0-0-0--|



Solo / Outro
Guitar 1:
D#||--------------------------------------------------|
A#||--7b8~--7b8r7~--5~----555-7-8~----8b10~--7~---0~--|
F#||--------------------------------------------------|
C#||--------------------------------------------------|
G#||--------------------------------------------------|
C#||--------------------------------------------------|


D#||--------------------------------------------------|
A#||--7b8~--7b8r7~--5~----5-8-77~---7-8-77-8---7--0~--|
F#||--------------------------------------------------|
C#||--------------------------------------------------|
G#||--------------------------------------------------|
C#||--------------------------------------------------|


D#||--------------------------------------------------|
A#||--7b8~--7b8r7~--5~----555-7-8~----8b10~--7~---0~--|
F#||--------------------------------------------------|
C#||--------------------------------------------------|
G#||--------------------------------------------------|
C#||--------------------------------------------------|


D#||------------------------------------------------5-----------------|
A#||--7-8-7-5~---7-8-7-5~---7-8-7-8~---7-5~---7-8-8---8--7------------|
F#||--------------------------------------------------------7---7/9~--|
C#||------------------------------------------------------------------|
G#||------------------------------------------------------------------|
C#||------------------------------------------------------------------|


Guitar 2 (Dub):
D#||-------------------------------------------------|
A#||-------------------------------------------------|
F#||-------------------------------------------------|
C#||--4b5~--4b5r4~--2~----222-4-5~----5b7~--4~-------|
G#||---------------------------------------------2~--|
C#||-------------------------------------------------|


D#||--------------------------------------------------|
A#||--------------------------------------------------|
F#||--------------------------------------------------|
C#||--4b5~--4b5r4~--2~----2-5-44~---4-5-44-5---4------|
G#||----------------------------------------------2~--|
C#||--------------------------------------------------|


D#||-------------------------------------------------|
A#||-------------------------------------------------|
F#||-------------------------------------------------|
C#||--4b5~--4b5r4~--2~----222-4-5~----5b7~--4~-------|
G#||---------------------------------------------2~--|
C#||-------------------------------------------------|


D#||-------------------------------------------------------------------|
A#||-------------------------------------------------------------------|
F#||------------------------------------------------2------------------|
C#||--4-5-4-2~---4-5-4-2~---4-5-4-5~---4-2~---4-5-5---5--4-------------|
G#||---------------------------------------------------------5---5/7~--|
C#||-------------------------------------------------------------------|


Guitar 3:
D#||--------------------------------------------------|
A#||--------------------------------------------------|
F#||-------------5~--5-5-5~----5~---------------------|
C#||--2~---00~---5~--5-5-5~----5~---55~---0~--0-0-0~--| x3
G#||--2~---00~---3~--3-3-3~----3~---55~---0~--0-0-0~--|
C#||--2~---00~----------------------55~---0~--0-0-0~--|


D#||---------------------------------------------------|
A#||---------------------------------------------------|
F#||-------------5~--5-5-5~----5~----------------------|
C#||--2~---00~---5~--5-5-5~----5~---55-7-5--4--0---2~--|
G#||--2~---00~---3~--3-3-3~----3~---55-7-5--4--0---2~--|
C#||--2~---00~----------------------55-7-5--4--0---2~--|




Tablature Legend
----------------
 h   - hammer-on
 p   - pull-off
 b   - bend
 r   - release bend
 *   - pinch harmonic
 '   - natural harmonic
 x   - mute note
 .   - palm mute
 /   - slide down
 \   - slide up
Tap to rate this tab
 
# A B C D E F G H I J K L M N O P Q R S T U V W X Y Z