Song name
# A B C D E F G H I J K L M N O P Q R S T U V W X Y Z

Justice - Genesis tab

Justice - Genesis

Intro only i'm trying to tab the rest of the the song.

e|--------------------|
B|--------------------|
G|--------------------|
D|-0---0-3-0-2-0-3----|
A|-0---0-3-0-2-0-3----|
D|-0---0-3-0-2-0-3----|  Repeat 3 times

Then
e|--------------------------|
B|--------------------------|
G|--------------------------|
D|-5-7--8---8-10--11---14---|
A|-5-7--8---8-10--11---14---|
D|-5-7--8---8-10--11---14---|
Tap to rate this tab
 
# A B C D E F G H I J K L M N O P Q R S T U V W X Y Z