Song name
# A B C D E F G H I J K L M N O P Q R S T U V W X Y Z

Justice - Civilization tab

This is not exactly as it is played, only the correct sounds (or near close enough) that
you should use to help you find the proper rhythm of the song. I strum the A minor in
the chorus a few times, just didn't tab it out. Left bridge out because I hate bridges 
and my back is sore 8). First tab pls rate :).


Intro:

Am...Am...Am...Am

[Am...Am Am...Am

|---------------------------------------------------------------|
|---------------------------------------------------------------|
|-5p4-2p0-0-----------------------------------------------------|
|--------2------------------------------------------------------|
|---------------------------------------------------------------|
|---------------------------------------------------------------| ]x3

Am...Am Am...Am

|---------------------------------------------------------------|
|-1-3-----------------------------------------------------------|
|---------------------------------------------------------------|
|---------------------------------------------------------------|
|---------------------------------------------------------------|
|---------------------------------------------------------------|

Verse:

Am...Am...Am...Am

Fade Out:

Am...Bm...C...D...E

Chorus:

|----1-1-----3-3--0---------------------------------------------|
|----1-1-----3-3--1---------------------------------------------|
|----2-2-----4-4--2---------------------------------------------|
|----3-3-----5-5--2---------------------------------------------|
|----3-3-----5-5--0---------------------------------------------|
|0---1-1-0h1-3-3------------------------------------------------|

|-1-1-----3-3----0----------------------------------------------|
|-1-1-----3-3----1----------------------------------------------|
|-2-2-----4-4----2----------------------------------------------|
|-3-3-----5-5----2----------------------------------------------|
|-3-3-----5-5----0----------------------------------------------|
|-1-1-0h1-3-3-0h3-----------------------------------------------|

|-1-1-----3-3----0----------------------0-----------------------|
|-1-1-----3-3----1-----1-0-1p0----------1p0---------------------|
|-2-2-----4-4----2------------2---------2---2-0-2---------------|
|-3-3-----5-5----2----------------------2-----------------------|
|-3-3-----5-5----0---------------3-2-0--0-----------------------|
|-1-1-0h1-3-3---------------------------------------------------|
Tap to rate this tab
# A B C D E F G H I J K L M N O P Q R S T U V W X Y Z