Song name
# A B C D E F G H I J K L M N O P Q R S T U V W X Y Z

Justice - Brianvison tab

Justice
Brianvision

e|-----------------------------------------------------|\
B|-----------------------------------------------------| \
g|-----------------------------------------------------|  \
d|-----------------------------------------------------|   \
a|----8-8-10-10-11-11-10-10----------------------------|    |
E|--------------------------8-8-10-10-11-11-10-10------|    |
                                                            2x
e|-----------------------------------------------------|    |
B|-----------------------------------------------------|    |
g|-----------------------------------------------------|   /
d|-----------------------------------------------------|  /
a|-------8-8-9-9-8-8-----------------------------------| /
E|-11-11-------------6-6-8-8-9-9-8-8-------------------|/

e|------------------|-----------------|
B|------------------|-----------------|
G|-13--12p10h12-----|-11--10p8h10-----|
D|--------------10--|-------------8---|
A|------------------|-----------------|
E|------------------|-----------------|

e|------------------|----------------|----------------------|--------------|
B|------------------|----------------|----------------------|--------------|
G|-13--12p10h12-----|-11--10p8h10----|-9--8p6/5-8-13-17-18--|-17p15/12-18--|
D|--------------10--|-------------8--|----------------------|--------------|
A|------------------|----------------|----------------------|--------------|
E|------------------|----------------|----------------------|--------------|

e|------------------|-----------------|
B|------------------|-----------------|
G|-13--12p10h12-/17-|-11--10p8h10-/15-|
D|------------------|-----------------|
A|------------------|-----------------|
E|------------------|-----------------|

e|------------------|----------------|----------------------|--------------|
B|------------------|----------------|----------------------|--------------|
G|-13--12p10h12-----|-11--10p8h10----|-9--8p6/5-8-13-17-18--|-17p15/12-/18-|
D|--------------10--|-------------8--|----------------------|--------------|
A|------------------|----------------|----------------------|--------------|
E|------------------|----------------|----------------------|--------------|

e|------------------|----------------|----------------------|--------------|
B|------------------|----------------|----------------------|--------------|
G|-13--12p10h12-17--|-11--10p8h10-15-|-9--8p6/5-8-13-17-18--|-17p15/12-/18-|
D|------------------|----------------|----------------------|--------------|
A|------------------|----------------|----------------------|--------------|
E|------------------|----------------|----------------------|--------------|

e|------------------|----------------|----------------------|--------------|
B|------------------|----------------|----------------------|--------------|
G|-13--12p10h12-----|-11--10p8h10----|-9--8p6/5-8-13-17-18--|-17p15/12-/18-|
D|--------------10--|-------------8--|----------------------|--------------|
A|------------------|----------------|----------------------|--------------|
E|------------------|----------------|----------------------|--------------|

e|------------------|----------------|----------------------|--------------|
B|------------------|----------------|----------------------|--------------|
G|-13--12p10h12-17--|-11--10p8h10-15-|-9--8p6/5-8-13-17-18--|-17p15/12-/18-|
D|------------------|----------------|----------------------|--------------|
A|------------------|----------------|----------------------|--------------|
E|------------------|----------------|----------------------|--------------|
Tap to rate this tab
# A B C D E F G H I J K L M N O P Q R S T U V W X Y Z