Song name
# A B C D E F G H I J K L M N O P Q R S T U V W X Y Z

Justice - Helix tab

Intro of Helix by Justice, in their album Audio, Video, Disco.

Gtr. 1

E------------------------------------------|
B------------------------------------------|
G-7--------------------------7-5-4---------|
D-7------5h7-5h7--7h5-5-7p5--------7-5-----|
A-5---5h8------------8-----8-----------3---|
E------------------------------------------|

Gtr.2
E---------------------------------------|
B--------------------------8-6p5h6-5----|
G-7--7p5p4-5-7p5-5p4-4-5p4----------5---|
D-------------------7-----7-------------|
A---------------------------------------|
E---------------------------------------|


Gtr. 3
E----------------------------------------|
B-6--6p5p3-5-6p5-5p3---3h5p3--8-6p5h6-5--|
G--------------------5------5----------5-|
D----------------------------------------|
A----------------------------------------|
E----------------------------------------|


Rhythm guitar

E----------------------------------------|
B----------------------------------------|
G-7--------------------------------------|
D-7---7-x-7--x-5-x-5--x-3----------------|
A-5---7-x-7--x-5-x-5--x-3----------------|
E-----5-x-5--x-3-x-3--x-1----------------|


Listen carefully to the song for the rhythm guitar, the F power chord should begin just 
before the highest note.
Tap to rate this tab
# A B C D E F G H I J K L M N O P Q R S T U V W X Y Z