Song name
# A B C D E F G H I J K L M N O P Q R S T U V W X Y Z

Justifide - Hold Us Down tab

Intro

Drop D

E|------------------------------------
B|------------------------------------
G|-5--5--5---5---9--9--12--12--111111-
D|-3--3--3---3---7--7--10--10--8-8-8--
A|-3--3--3---3---7--7--10--10--8-8-8--
D|-3--3--3---3---7--7--10--10--8-8-8--

E|---------------------------------------
B|---------------------------------------
G|-5--5--5-5--5---9--9--12--12--15-15-15-
D|-3--3--3-3--3---7--7--10--10--13-13-13-
A|-3--3--3-3--3---7--7--10--10--13-13-13-
D|-3--3--3-3--3---7--7--10--10--13-13-13-

E|------------------------------------
B|------------------------------------
G|-5--5--5---5---9--9--12--12--111111-
D|-3--3--3---3---7--7--10--10--8-8-8--
A|-3--3--3---3---7--7--10--10--8-8-8--
D|-3--3--3---3---7--7--10--10--8-8-8--

E|--------------------------------
B|--------------------------------
G|-5------------------------------
D|-3------------------------------
A|-3------------------------------
D|-3------------------------------

    LET RING
(Listen for the good speed)

I only have the intro but I will try to tab all the song
Tap to rate this tab
# A B C D E F G H I J K L M N O P Q R S T U V W X Y Z