Guitaretab - guitar tabs
Song name
# A B C D E F G H I J K L M N O P Q R S T U V W X Y Z

Justifide - Our Little Secret tab

Song: Our Little Secret
Band: Justifide
Album: Life Outside The Toybox
Copyright:Cul De Sac Records/Ardent Records

Eb---------------------------------------------
Bb---------------------------------------------
Gb---------------------------------------------
Db---------------------------------------------
Ab--3\4---4-4-0---0--3\4-4---------------------
Db--3\4---4-4-0---0--3-4-4---------------------
riff 1:beggining and verse 1 same riff but different rythm


second opening is the same just distorted

chorus: Chords
Eb---------------------------------------------
Bb---------------------------------------------
Gb-11------14----------------------------------
Dbx-------x-----------------------------------
Ab--9------12----------------------------------
Db--9------12----------------------------------
[ Tab from: http://www.guitaretab.com/j/justifide/33213.html ]
During Chorus lead guitar
Eb---------------------------------------------
Bb---------------------------------------------
Gb--11--9---12~~-------------------------------
Dbx---x---x-----------------------------------
Ab--9---7---10---------------------------------
Db---------------------------------------------
Verse 2: same as verse 1 but palm muted


bridge
Eb---------------------------------------------
Bb---------------------------------------------
Gb---------------------------------------------
Db---------------------------------------------
Ab--2----2-0----2----2-0---5---7---------------
Db--2----2-0----2----2-0---5---7---------------



part after bridge sorry ill tab it later
This is my first tab so im not that good at it. The guitar parts are
right but the guitar is tuned down 1 and a half steps. Ill ge more
Justifides songs tabbed as soon as i figure them out.
Related for Our Little Secret tab