Song name
# A B C D E F G H I J K L M N O P Q R S T U V W X Y Z

Justin Bieber - One Time tab

Standard tuning
You don't need a capo
Tabbed By: Liz7910 (add me on youtube)

Intro - PART 1
e|------------------------3-----------------------|
B|--2---------3------3------2---------------------|
G|----2---------2------2------0-----0---------0---| X2
D|------0---------0------0------------2---------2-|
A|--------3---------3------------3------3--3------|
E|--------3---------3------------3---------3------|

e|------------|
B|------------|
G|-0------0---| <-- Don't play this the SECOND time you play the intro.
D|---2------2-|
A|-----3--3---|
E|--------3---|

Instead...Play this --> e|-------|
(STRUM IT)              B|-------|
                        G|-0-----|
                        D|---2---|
                        A|-----3-|
                        E|-----3-|


Intro PART 2- "Me plus you, Imma tell you one time. Imma tell ya one time. Imma tell you 
time."
e|----------------------3----------------------------|
B|--2---------3---3-------2--------------------------|
G|----2-------2-----2-------0--------0---0-----------| X2
D|------0-----0-------0--------------2-----2---------|
A|--------3-------------------3------3-------3-------|
E|--------3-------------------3------3---------------|

And then play this over and over until you finish the song.
e|----------------------3----------------------------|
B|--2---------3---3-------2--------------------------|
G|----2-------2-----2-------0--------0---0-----------|
D|------0-----0-------0--------------2-----2---------|
A|--------3-------------------3------3-------3-------|
E|--------3-------------------3------3---------------|

Try to figure out the plucking/strumming pattern.
To make it easier for you guys try to play like "Guitarboy702" on YouTube (he uses a 
on his..i think the tabs are different because this was by ear since i couldnt really make 
what he was playing)

Heres the link:
http://www.youtube.com/watch?v=d_DA4Z3YbIA
Tap to rate this tab
# A B C D E F G H I J K L M N O P Q R S T U V W X Y Z