Song name
# A B C D E F G H I J K L M N O P Q R S T U V W X Y Z

Justin Bieber - One Time Acoustic tab

Song: One Time
Artist: Justin Bieber
Cover by: http://www.youtube.com/user/Guitarboy702
Tabbed by: AnnoyingXP

capo 5

ok...i don't think i got the tab 100% correct, but i think it's pretty close to what he plays


Intro:
   
   Bm7         G                D           A
e|----------x----------x--------------2--x-----------x--------|
B|-------3--x--------3-x------------3----x--------2--x--------|
G|-----2----x------0---x----------2------x------2----x--------| 
D|---0------x----0-----x----0---0--------x----2------x----2---|
A|-2--------x----------x-----------------x--0--------x--0-----|
E|----------x--3-------x--3--------------x-----------x--------|

e|----------x----------x--------------2--x-----------x--|
B|-------3--x--------3-x------------3----x--2--------x--|
G|-----2----x------0---x----------2------x--2--------x--| 
D|---0------x----0-----x----0---0--------x-----------x--|
A|-2--------x----------x-----------------x--0--------x--|
E|----------x--3-------x--3--------------x-----------x--|


This is played almost for the entire song (Verse/Chorus):

   Bm7        G          D            A
e|----------x----------x--------2--x-----------x----------|
B|-------3--x--3-------x------3----x--2--------x----------|
G|-----2----x--0-------x----2------x--2--------x----------| 
D|---0------x----------x--0--------x-----------x----------|
A|-2--------x----------x-----------x--0--------x----------|
E|----------x--3-------x-----------x-----------x----------|


Intro
Tap to rate this tab
 
# A B C D E F G H I J K L M N O P Q R S T U V W X Y Z